Saudade Nível Hard

Yasmin Santos

Composição de: Dayane Camargo / Lara Menezes / Phelipe Pancadinha / Victor Hugo
tom: F# (forma dos acordes no tom de E ) Capotraste na 2ª casa
[Intro] Em7  G5(9)

[Primeira Parte] 

Ah, se esse aperto
 D9
Fosse falta de dinheiro
 Bm7
Horário de pico, ônibus lotado
Trânsito parado

E|------------------------------------------|
B|-/7-5-7~----------------------------------|
G|------------------------------------------|
D|------------------------------------------|
A|------------------------------------------|
E|------------------------------------------|

            G5(9)
Eu dava um jeito
    Gm
Mas esse é outro tipo de aperto

[Pré-Refrão] 

 Em7
Tá sobrando vontade
 G5(9)
Tá faltando coragem
    D9
Não aguentei apelei pra bebida
 A9
Vou pedir arrego
                    G5(9)  A9
Pra voltar pra sua vida

[Refrão] 

                    Em7
É que eu tô com saudade
               G5(9)
Saudade nível hard
              D9/F#
Daquelas que bate, bate
                 A9
E arde mais que merthiolate
                 Em7
É que eu tô com saudade
               G5(9)
Saudade nível hard
              D9/F#
Daquelas que bate, bate
                 A9
E arde mais que merthiolate

                 Em7
É que eu tô com saudade

( G5(9)  D9/F#  A9 )
( Em7  G5(9) )

[Primeira Parte] 

D9
Ah, se esse aperto
Fosse falta de dinheiro

E|------------------------------------------|
B|-2p0---0----------------------------------|
G|-----4---4p2p0----------------------------|
D|------------------------------------------|
A|------------------------------------------|
E|------------------------------------------|

 Bm7
Horário de pico, ônibus lotado
Trânsito parado
            G5(9)
Eu dava um jeito
    Gm
Mas esse é outro tipo de aperto

[Pré-Refrão] 

 Em7
Tá sobrando vontade
 G5(9)
Tá faltando coragem

E|-----------------------------------------------|
B|-----------------------------------------------|
G|--------0----0----------0----0----0------------|
D|-----4----4----4----------4----4---------------|
A|--7--------------------------------------------|
E|-----------------------------------------------|
 
     D9/F#
Não aguentei apelei pra bebida
 A9
Vou pedir arrego
                    G5(9)  A9
Pra voltar pra sua vida

[Refrão] 

                    Em7
É que eu tô com saudade
               G5(9)
Saudade nível hard
              D9/F#
Daquelas que bate, bate
                 A9
E arde mais que merthiolate
                 Em7
É que eu tô com saudade
               G5(9)
Saudade nível hard
              D9/F#
Daquelas que bate, bate
                 A9
E arde mais que merthiolate

                    Em7  D9/F#  Em7
É que eu tô com saudade
               G5(9)  A9  G5(9)
Saudade nível hard
              D9/F#
Daquelas que bate, bate
                 A9
E arde mais que merthiolate
                 Em7
É que eu tô com saudade
               G5(9)
Saudade nível hard
              D9/F#
Daquelas que bate, bate
                 A9
E arde mais que merthiolate

                 Em7
É que eu tô com saudade

[Final] G5(9)  D9/F#  D9
Página 1 / 1

Letras e título
Acordes e artista

resetar configurações
OK