Cifra Club

Sinto Muito Mas Não Sinto Mais

Yasmin Santos

Cifra: Principal (violão e guitarra)
tom: C
[Intro] Dm  F  Am  G
        Dm  F  Am  G

[Tab - Intro]

E|------------------------------------------|
B|-15\--5h6-5h6-5h6-5-----------------------|
G|--------------------3-5-------------------|
D|------------------------------------------|
A|------------------------------------------|
E|------------------------------------------|

E|------------------------------------------|
B|-5h6-5h6-6p5-----5~--5-6-5h6p5------------|
G|-------------7-5---------------7-5-7------|
D|------------------------------------------|
A|------------------------------------------|
E|------------------------------------------|

E|------------------------------------------|
B|-5h6-5h6-5h6-5----------------------------|
G|--------------------3-5-------------------|
D|------------------------------------------|
A|------------------------------------------|
E|------------------------------------------|

E|------------------------------------------|
B|-5h6-5h6-6p5-----5~--5-6-5h6p5------------|
G|-------------7-5---------------7-5-7------|
D|------------------------------------------|
A|------------------------------------------|
E|------------------------------------------|

E|------------------------------------------|
B|-15-15-15/--------------------------------|
G|------------------------------------------|
D|------------------------------------------|
A|------------------------------------------|
E|------------------------------------------|

[Primeira Parte] 

      Dm              Am
Você pode até falar que isso é amor
     Dm                      Am          G      
Mas fala aqui pra mim quanto é que cê pagou?

[Pré-Refrão] 

           Dm             Am
Pra ela falar o que eu falava
         C                        G
Cê tá pagando o que cê ouvia de graça
          Dm              Am
Que decepção deve ter passado
           C                       G 
Deitou com outra com o horário contado

[Refrão] 

     Dm      Am
Ela vai te amar
      C                G
Até quando cê puder pagar
     Dm        Am
Ela vai te iludir
    C             G
Até a sua ficha cair

     Dm      Am
Ela vai te amar
      C                G
Até quando cê puder pagar
     Dm        Am
Ela vai te iludir
    C             G
Até a sua ficha cair

                        Dm 
Seu beijo eu não beijo mais
                       F
Sua cama eu não deito mais
          C                   G
Eu sinto muito mas não sinto mais

                        Dm 
Seu beijo eu não beijo mais
                       F
Sua cama eu não deito mais
          C                   G
Eu sinto muito mas não sinto mais

[Solo] Dm  F  Am  G
       Dm  F  Am  G

[Tab - Solo]

E|------------------------------------------|
B|-15\--5h6-5h6-5h6-5-----------------------|
G|--------------------3-5-------------------|
D|------------------------------------------|
A|------------------------------------------|
E|------------------------------------------|

E|------------------------------------------|
B|-5h6-5h6-6p5-----5~--5-6-5h6p5------------|
G|-------------7-5---------------7-5-7------|
D|------------------------------------------|
A|------------------------------------------|
E|------------------------------------------|

E|------------------------------------------|
B|-5h6-5h6-5h6-5----------------------------|
G|--------------------3-5-------------------|
D|------------------------------------------|
A|------------------------------------------|
E|------------------------------------------|

E|------------------------------------------|
B|-5h6-5h6-6p5-----5~--5-6-8----------------|
G|-------------7-5--------------------------|
D|------------------------------------------|
A|------------------------------------------|
E|------------------------------------------|

[Pré-Refrão] 

           Dm             Am
Pra ela falar o que eu falava
         C                        G
Cê tá pagando o que cê ouvia de graça
          Dm              Am
Que decepção deve ter passado
           C                       G 
Deitou com outra com o horário contado

[Refrão] 

     Dm      Am
Ela vai te amar
      C                G
Até quando cê puder pagar
     Dm        Am
Ela vai te iludir
    C             G
Até a sua ficha cair

     Dm      Am
Ela vai te amar
      C                G
Até quando cê puder pagar
     Dm        Am
Ela vai te iludir
    C             G
Até a sua ficha cair

                        Dm 
Seu beijo eu não beijo mais
                       F
Sua cama eu não deito mais
          C                   G
Eu sinto muito mas não sinto mais

                        Dm 
Seu beijo eu não beijo mais
                       F
Sua cama eu não deito mais
          C                   G
Eu sinto muito mas não sinto mais

[Final] Dm  F  Am  G
        Dm  F  Am  G  Dm

[Tab - Solo]

E|------------------------------------------|
B|-15\--5h6-5h6-5h6-5-----------------------|
G|--------------------3-5-------------------|
D|------------------------------------------|
A|------------------------------------------|
E|------------------------------------------|

E|------------------------------------------|
B|-5h6-5h6-6p5-----5~--5-6-6/8--15-15-15\---|
G|-------------7-5--------------------------|
D|------------------------------------------|
A|------------------------------------------|
E|------------------------------------------|
00:00 / 00:00
Outros vídeos desta música
Repetir
Outros vídeos desta música
Composição de Chayenne / Filipe Mattos / Rennan Passos / Ruan Soares / V Pereira / Yasmin Santos
Colaboração e revisão:
  • Thiago Almeida
112 exibições
    • ½ Tom
    • A
    • Bb
    • B
    • C
    • Db
    • D
    • Eb
    • E
    • F
    • F#
    • G
    • Ab
  • Adicionar à lista

    0 comentários

    Ver todos os comentários

    Conseguiu tocar?

    0 Tocaram 0 Ainda não

    Grave um vídeo tocando Sinto Muito Mas Não Sinto Mais e nos envie!

    Entre para oCifra Club PRO

    Tenha acesso a benefícios exclusivos no App e no Site

    • Chega de anúncios

    • Prioridade de compra em lançamentos

    • Mais recursos no app do Afinador

    • Atendimento Prioritário

    • Descontos nos produtos Cifra Club

    • Ajude a produzir mais conteúdo

    00:00 / 00:00

    Cifra Club Pro

    Aproveite o Cifra Club com benefícios exclusivos e sem anúncios
    Cifra Club Pro
    Aproveite o Cifra Club com benefícios exclusivos e sem anúncios
    OK