Cifra Club

Aprenda

Acoustic

Yngwie Malmsteen

Cifra: Principal (violão e guitarra)
tom: E
0:47 secs
E|----------------------------------------2h3p2------|
B|-------8---7-------------7----5-----5---------5-3--|
G|-----9-------7---------7--------5-----5------------|
D|---9-----9-----7-----7-----7------5----------------|
A|---------------------------------------------------|
E|-0----------------0--------------------------------|

E|------------------------------------------------------------------------------------|
B|---------7---7---------------7---------10---10-9h10p9------9-10---10-9h10p9-----10p9|
G|-------8---8---8-----------8---------9----9-----------9---------9-----------9-------|
D|-----9-----------9-------9---------9--------------------9---------------------9-----|
A|---9---------------9---9---------7--------------------------------------------------|
E|-7-------------------7--------------------------------------------------------------|

E|-----------0-----------------------------------------3p2-----3p2----------|
B|-------0-1---1-------------------------2-----------3-----3-------3--------|
G|-----2---------2--------4---4--------3---3-------2---------2-------2------|
D|---2------------------5---5--------4-------4---0---------------------0----|
A|-0------------------5------------4-----------4----------------------------|
E|------------------3------------2------------------------------------------|

:--------------------1-1p0-----------------------------------------/5-4--------5----------7|
:----------1---------------3-----1-----1--------1-----1----3------------5----5---5------7--|
:--------------2-------------------2-2-----------------------2-------------7-------7--9----|
:-------3----3----------------0--------------0------0----------3---------------------------|
:-----3-----------0------------------------3------2-----0--------2-------------------------|
:-0-1--------------------------------------------------------------------------------------|

E|-------7------------------|
B|-7---7--------------------|
G|---9----------------------|
D|--------------------------|
A|--------------------------|
E|--------------------------|

E|-----------7-12-7-8-----7-------------------6-7-------------------------------------|
B|---------8----------10----8-10-7-8---7----------7-10-8------------------------------|
G|-------9---------------------------9---7-9-------------9----------------------------|
D|-----9----------------------------------------------------9----9----7----5----4---2-|
A|---7--------------------------------------------------------10----9----7----5---3---|
E|-0----------------------------------------------------------------------------------|

:-------------------------------------------------------------------------------------12nh-|
:-------------------------------------------------------------------------------------12nh-|
:-------------------------------------------------------------------------------------12nh-|
:-------------------------------------------------------------------------------------12nh-|
:-------------------------------------------------------------------------------------12nh-|
:-2h3p2h3p2h3p2h3p2h3p2h3p2h3/11h12p11h12p11h12p11h12p11h12p11h12p11h12p11-12~~~~-----12nh-|

E|---------------------------------------------------------------------12-8----------|
B|------------------------------------------------12nh----------------------10-8-7-8-|
G|-----------------------------------------------------------12nh--------------------|
D|-------------------------------------------12nh-------12nh---------------------0---|
A|-9h10p9h10p9h10p9h10p9h10p9h10p9---------------------------------------------------|
E|----------------------------------0--12nh-------------------------8----------------|

E|-----------------------------------10---------------------------------------10--8--|
B|-7h8p7h8p7h8p7h8p7h8p7---------------------------12------10--9h10p9----9-----------|
G|------------------------9-7---7----------10-9-10----10-9------------11---11--------|
D|----------------------------9------------------------------------------------------|
A|----------------------------------------------0-----8--------7---------------------|
E|------------------------8-----------7---------------------------------------------|

:-----------------5-4h5p4---4---8-7-7-7-------7--9-10-----------7-8--7h8p7-----------------|
:-------------------------7---5-----8---------8--------8-8-8-10------------10-8--------7-8-|
:-------4-5-------------------------7---7-----7---------------------------------7-8-10-----|
:-7-6-7-----5-4---------------------------9---9--------------------------------------------|
:-------------------------------------------0----------------------------------------------|
:-5----------------------------------------------------------------------------------------|

E|-------------9-10-12-----------12-14-15----------14-15-17----------15-16-18p15-----------|
B|-10--9-10-12----------12-14-15----------14-15-17----------15-16-18-------------18p15-----|
G|------------------------------------------------------------------------------------17p15|
D|-----------------------------------------------------------------------------------------|
A|-----------------------------------------------------------------------------------------|
E|-----------------------------------------------------------------------------------------|

E|-------------------------------------------10-12------------------|
B|-------------------------------------12nh-------------------------|
G|--------------------------------12nh------------------------------|
D|-17p15---------------------12nh-----------------------------------|
A|-------17p15------------------------------------------------------|
E|-------------18p15---12nh-----------------------------------------|

:-------------------------|
:--------------------12nh-|
:--------------------12nh-|
:--------------------12nh-|
:-------------------------|
:-------------------------|

E|---------------------------------------------------------------------12-8----------|
B|------------------------------------------------12nh----------------------10-8-7-8-|
G|-----------------------------------------------------------12nh--------------------|
D|-------------------------------------------12nh-------12nh-------------------------|
A|-9h10p9h10p9h10p9h10p9h10p9h10p9---------------------------------------------------|
E|----------------------------------0--12nh-------------------------8----------------|

E|-----------------------------------10---------------------------------------10--8--|
B|-7h8p7h8p7h8p7h8p7h8p7---------------------------12------10--9h10p9----9-----------|
G|------------------------9-7---7----------10-9-10----10-9------------11---11--------|
D|----------------------------9------------------------------------------------------|
A|-----------------------------------------------------------------------------------|
E|-----------------------------------------------------------------------------------|

:-----------------5-4h5p4---4---8-7-7-7-------7--9-10-----------7-8--7h8p7-----------------|
:-------------------------7---5-----8---------8--------8-8-8-10------------10-8--------7-8-|
:-------4-5-------------------------7---7-----7---------------------------------7-8-10-----|
:-7-6-7-----5-4---------------------------9---9--------------------------------------------|
:-------------------------------------------0----------------------------------------------|
:------------------------------------------------------------------------------------------|

Ae galera a música completa boa sorte!
Colaboração e revisão:
  • Christian Lopes
  • Eliakin sá
6.285 exibições
    • ½ Tom
    • A
    • Bb
    • B
    • C
    • Db
    • D
    • Eb
    • E
    • F
    • F#
    • G
    • Ab
  • Adicionar à lista

    0 comentários

    Ver todos os comentários

    Conseguiu tocar?

    1 Tocaram 0 Ainda não

    Grave um vídeo tocando Acoustic e nos envie!

    00:00 / 00:00
    outros vídeos desta música
    repetir qualidade Automático
    Outros vídeos desta música
    00:00 / 00:00
    Automático

    Cifra Club Pro

    Aproveite o Cifra Club com benefícios exclusivos e sem anúncios
    Cifra Club Pro
    Aproveite o Cifra Club com benefícios exclusivos e sem anúncios
    OK