Notificações Amigos pendentes

      Yngwie Malmsteen

      Apart

      641 exibições
      Tom: C
      
      |-------------------17h19h20~\--|-14----14--14----14-14----14-14-14---------|
      |----------17h19h20-------------|-17bf------17bf-----17bf-----------17bf----|
      |-16h17h19----------------------|-------------------------------------------|
      |-------------------------------|-------------------------------------------|
      |-------------------------------|-------------------------------------------|
      |-------------------------------|-------------------------------------------|
      
      
      --------------|-------14---------------------------------------------------|
      -17bf--17bf~--|-14-------17p14-------14----14------------------------------|
      --------------|-16bf-----------16bf-----16----17p16p14----16~--------------|
      --------------|----------------------------------------16------------------|
      --------------|------------------------------------------------------------|
      --------------|------------------------------------------------------------|
      
      
      |---------------------------------------------------------------14---------|
      |-/9-12-9-10h12-14-10-12-14-15-12-14-15-17-14-15-17/19-15-17-19------------|
      |--------------------------------------------------------------------------|
      |--------------------------------------------------------------------------|
      |--------------------------------------------------------------------------|
      |--------------------------------------------------------------------------|
      
      
      |------14----------------------|---------14------------14--------------------|
      |-17bf------15bf~--------------|------14----17p14---------17-14------14------|
      |-----------14bf~--17p16-14h16-|-16bf-------------16bf----------16bf----16bf-|
      |------------------------------|---------------------------------------------|
      |------------------------------|---------------------------------------------|
      |------------------------------|---------------------------------------------|
      
      
                                           1/2   1 1/2
      
      ---------------------|------17-19-21-21b---21b----|-21b~--------17bf-------|
      -14------------------|--/21-----------------------|------------------------|
      ----17p16p14----16~--|----------------------------|------------------------|
      -------------16------|----------------------------|------------------------|
      ---------------------|----------------------------|------------------------|
      ---------------------|----------------------------|------------------------|
      
      
      -p16p14------------|-------------------------------------------------------|
      --------17-16-15~--|-0-----------------------------------------------------|
      -------------------|---6-7p6---6---6-9p7p6-6---6-7p6---6---6-7p6-----------|
      -------------------|---------9---9-----------9-------9---9-------9---------|
      -------------------|-------------------------------------------------------|
      -------------------|-------------------------------------------------------|
      
      
      |-----------------------------------------9----10p9-|----9------------------|
      |-------------9---7-9p7---10-7-9-10-10-12---12------|-12---12-10-9----9-----|
      |-6---6-7p6-----9-------9---------------------------|--------------11---11--|
      |---9-------9---------------------------------------|-----------------------|
      |---------------------------------------------------|-----------------------|
      |---------------------------------------------------|-----------------------|
      
      
      ------------------------9-12-10-9------11-12|p11----11-12p11----10-12p10----|
      --------------9-9-10-12-----------9---------|----14----------14----------14-|
      --10h11-10h11-----------------------11------|-------------------------------|
      --------------------------------------------|-------------------------------|
      --------------------------------------------|-------------------------------|
      --------------------------------------------|-------------------------------|
      
      
      -10h12p10-----10-------------|
      ----------114----12-14p12-10-|
      -----------------------------|  fade out
      -----------------------------|
      -----------------------------|
      -----------------------------|
      
      
      ==============================================
      h = hammeron
      p = pulloff
      /\ = slide
      x = ghost note
      t = tap
      (right hand)
      ~ = vibrato                     * = picked harmonic
      bf = bend full                  tr = trill
      rb = release bend               p.s. = pick scrape
      dive = dive with bar            b = bend / step written over note
      % = repeat bar                  + = natural harmonic
      ================================================

      Comentários 0

      140 .
      140 cancelar

      conseguiu tocar?

      covers

      Grave um vídeo tocando Apart e mande pra gente!

      Ex.: http://www.youtube.com/watch?v=0IvSvIwGdwk
      ver covers de outras músicas »
      0:00 / 0:00

      Capítulos

        1 versão de violão dificuldade exibições contribuição e correção
        1 versão de guitarra dificuldade exibições contribuição e correção
        1 versão de cavaco dificuldade exibições contribuição e correção
        1 versão de teclado dificuldade exibições contribuição e correção
        play/pausefechar subir/descer velocidade
        6ª corda E5ª corda A4ª corda D3ª corda G2ª corda B1ª corda E
          acordes
          publicidade
          fechar
          ok