Cifra Club

Aprenda

I am a Viking

Yngwie Malmsteen

Cifra: Principal (violão e guitarra)
Já pensou em usar uma coleção de roupas do Cifra Club? Responda as perguntas abaixo e nos ajude nessa missão! →
tom: G
Legenda:

h: Hammer on
p: Pull off
b: Bend
r: Release bend
p.m: Palm Muting
~: Vibrato
h.a: Harmonico Artificial
(): Nota fantasma
/: Slide
T: tapping
Alav: Alavanca
----------------------->Afinação: 1/2 tom abaixo<----------------------
|---------------------------------------------------------------------|

    Em                          p.m.
||---------------------------------------------------|----------------|
||---------------------------------------------------|----------------|
||---------------------------------------------------|----------------|
||--------------------5--4h5p4-----4---7--5h7p5-4----|----------------|
||----7--6--7-------------------7------------------5-|---5/7-6-7------|
||-0-----------0--0----------------------------------|-0---------0--0-|

                                   C
|------------------------------||-------------------------------------|
|------------------------------||-------------------------------------|
|-5-4h5p4-----4----------------||-----------------------------------4-|
|---------7-5---7-5-4--7-5-4---||-------------4-----4-5---4-5-7-5-7---|
|----------------------------5-||-3-5-7-3-5-7---5-7-----7-------------|
|------------------------------||-------------------------------------|

|---------------------------||----------------------------------------|
|---------------------------||----------------------------------------|
|-----4-5---4---------------||-------------------------------------4--|
|-5-7-----7---5-7-4-5---4---||-------------4-----4-5---4-5-7-4-5-7----|
|---------------------7---5-||-3-5-7-3-5-7---5-7-----7----------------|
|---------------------------||----------------------------------------|

                                                  Em       p.m....
|-----------------------------------------------||--------------------|
|-----------------------------------------------||--------------------|
|-----4-5---4-----------------------------7-----||-------9---------9--|
|-5-7-----7---5-7-4-5---4------------5----7-----||-------9---------9--|
|---------------------7---5--3-------5----5-----||-------7---------7--|
|------------------------------------3----------||-0-0-0---0-0-0-0----|

                 p.m.   ....                                       ....  
|-------------------------------|-------------------------------------|
|-------------------------------|-------------------------------------|
|-7-----------9-------5------7--|-------9----------7----5--4--2----2--|
|-7-----------9-------5------7--|-------9----------7----5------5-4----|
|-5-----------7--3--3---5--5----|-------7--5-5-5-5------3-------------|
|-----0-0-0-0-------------------|-0-0-0-------------------------------|

...................            .......               ...    ...
|--------------------|------------------------|-----------------------|
|--------------------|------------------------|-----------------------|
|--------------------|------9-----------9--7--|---9------5------7-----|
|-5-4-2-1------------|------9-----------9--7--|---9------5------7-----|
|---------3-2--------|------7-----------7--5--|---7--3-3----5-5-------|
|-------------5-3-2--|-0-0-----0-0-0-0--------|-0---------------------|

        .......
|-------------------------------------|-------------------------------|
|-------------------------------------|-------------------------------|
|----9----------7----5----------------|-2-----------------------------|
|----9----------7----5---2-1h2p1------|-2-----------------------------|
|----7--5-5-5-5------3-----------3-2--|-0---------0-2---3/6---6--6/7/9|
|-0-----------------------------------|-------------------------------|

|-------------------------------|-------------0-----------------------|
|-------------------------9-----|-------0--1--------1-----------------|
|-------------------------------|-2--2-----------8------------------3-|
|--------------4/5/7--5---6-----|-2-----------------------------2-5---|
|-7--7/9/10-9-------------------|-0----------------------1--1-4-------|
|-------------------------------|-------------------------------------|

                                p.m................................... 
|---------------------|-----------------------------------------------|
|---5-8-5-------------|-----------------------------------------------|
|-6-------6--3-6-3----|-4-----4---------------------------------------|
|------------------5--|-4-----4---------------------------------------|
|---------------------|-2-2-2-2-2-2-2-2-2-2-2-2-2-2-2-3-2-3--2-3-2-3--|
|---------------------|-----------------------------------------------|

....................
|------------------||--------------------------------------|----------|
|------------------||--------------------------------------|----------|
|------------------||--------------------------------------|----------|
|------------------||--------------5-4h5p4---4-7-5h7p5-4---|----------|
|-2-3-2---2--------||----7-6-7-------------7-------------5-|---5/7-6-7|
|-------5---5-3-2--||-0--------0-0-------------------------|-0--------|

|---------------------------------------------------------------------|
|---------------------------------------------------------------------|
|------5-4h5p4-----4--------------------------------------------------|
|--------------7-5---7-5-4-7-5-4---------------4-----4-5---4-5-7-4-5-7|
|--------------------------------5-3-5-7-3-5-7---5-7-----7------------|
|-0-0-----------------------------------------------------------------|

|------------------------------||-------------------------------------|
|------------------------------||-------------------------------------|
|-4-----4-5----4---------------||-------------------------------------|
|---5-7-----7----5-7-4-5---4---||-------------4-----4-5---4-5-7-4-5-7-|
|------------------------7---5-||-3-5-7-3-5-7---5-7-----7-------------|
|------------------------------||-------------------------------------|

                                C
|-----------------------------|------------------------------10-12-14-|
|-----------------------------|----------------------10-12-13---------|
|-4-----4-5---4---------------|---------------9-11-12-----------------|
|---5-7-----7---5-7-4-5---4---|--------9-10-12------------------------|
|-----------------------7---5-|-9-10-12-------------------------------|
|-----------------------------|---------------------------------------|

                                                  G5         D5
|-12-10-8-12-10-8-7-10-8-7-10-8-7--8-7--------------------------------|
|--------------------------------10---10-8-7/5------------------------|
|---------------------------------------------8-7-5/4-----------------|
|----------------------------------------------------7-5-4/2----------|
|-----------------------------------------------------------5-3-2-----|
|----------------------------------------------------------------5-3-2|

|---------------------------------------------------------------------|
|---------------------------------------------12----------------------|
|------/9-11--11b(13)r11-11-----9-11b(13)r11-9--11-9-8-9-9h12p11p9----|
|----9/----------------------/9---------------------------------------|
|---------------------------/-----------------------------------------|
|-0-------------------------------------------------------------------|

|---------------------------------------------------------------------|
|---------------------------------------------------13h17p15p13h15h17-|
|-8h11p9p8-11h14p12p11-12h16p14p12-11h14p12p11-12h16------------------|
|---------------------------------------------------------------------|
|---------------------------------------------------------------------|
|---------------------------------------------------------------------|

|-14-15p14p12p11----------------------------------19p15----19h20-17-20|
|---------------13p12p10------------------------17-----17-------------|
|-----------------------12p11p9-11p9p8-11p8h9-16---------16-----------|
|---------------------------------------------------------------------|
|---------------------------------------------------------------------|
|---------------------------------------------------------------------|

|-15-20--20--20--19-17-19-15-19-|-14-19---------------------19/20-15--|
|------19--17--15---------------|------16h17h19p16h17-----17----------|
|-------------------------------|-----------------------16------------|
|-------------------------------|---------------------17--------------|
|-------------------------------|-------------------------------------|
|-------------------------------|-------------------------------------|

|---------------------------------------------------------------------|
|-17--17--------------------------------------------------------------|
|---16--16--16-----------------------------------16-17-16-14p12-------|
|---------17--17-14-17--14---------------14-16-17--------------16-14--|
|---------------------14----14b(16)-14-14-----------------------------|
|-------------------------15------------------------------------------|

|---------------------------|-----12-14b(16)r14-12-14h15-12-------12--|
|-17b(19)-19b(21)-17b(19)---|---12-------------------------15b(16)----|
|---------------------------|-12--------------------------------------|
|---------------------------|-----------------------------------------|
|---------------------------|-----------------------------------------|
|---------------------------|-----------------------------------------|

                                                    T     T
|-------------------12------------------------10h12-14p12-14p12p10h12-|
|-15p12--------12h15---------------------10h12------------------------|
|------15b(16)--------14b(16)r14p12-14-12-----------------------------|
|---------------------------------------------------------------------|
|---------------------------------------------------------------------|
|---------------------------------------------------------------------|

      T     T        T        T
|-p10-14p12-14p12p10-15p12p10-15p12-19-17p15p14-|------------12-17p12-|
|-----------------------------------------------|----------13---------|
|-----------------------------------------------|--------14-----------|
|-----------------------------------------------|------14-------------|
|-----------------------------------------------|-12h15---------------|
|-----------------------------------------------|---------------------|

|-------12-17p12-20p17-----21b(23)r(22)b(23)-19-19b(21)r19~~-19h20p19p|
|-13--13--------------17----------------------------------------------|
|---14------------------17--------------------------------------------|
|---------------------------------------------------------------------|
|---------------------------------------------------------------------|
|---------------------------------------------------------------------|

|17--------19h20p19p17------------------------------------------------|
|--20h19p17-----------20p19p17/16-------------------------------------|
|--------------------------------19p17p16-----------------------------|
|----------------------------------------19p17p16---16-17-19-16-17-19-|
|------------------------------------------------19-------------------|
|---------------------------------------------------------------------|

|---------------------------------------------------------------------|
|---------------------------------------------------------------------|
|-16-----16-17--16-17--16-17-19-17-16--------------16--16-17--16-16/--|
|---17-19-----19-----19--------------19-17-16-17-19--19---------------|
|---------------------------------------------------------------------|
|---------------------------------------------------------------------|

|-19-16-----16-13-----13-10-----10-----10------12-17p12-17-20p17-12---|
|------18--------15--------12-----12---------13---------------------13|
|--------19--------16--------13-----13----/14-------------------------|
|---------------------------------------------------------------------|
|---------------------------------------------------------------------|
|---------------------------------------------------------------------|

                    Alav. 
|---------------------------21--18---------18p15----------------------|
|---------------------------------20-----20-----17------------17/20p19|
|-14-9------------------------------21-18---------18-15--15-18--------|
|-----10-----------------------------------------------17-------------|
|-------12-7-12-----0\/\/---------------------------------------------|
|--------------8-12---------------------------------------------------|

|------15-14--------14-15-14--------14-15--14-15-14--17-14-15-17-15-14|
|-17-19-----17-15-17--------17-15-17-----17--------17-----------------|
|---------------------------------------------------------------------|
|---------------------------------------------------------------------|
|---------------------------------------------------------------------|
|---------------------------------------------------------------------|

|-17b(19)(19)(19)(19)-19b(22)-19-19b(22)r19-19h20p19p17---------------|
|------------------------------------------------------20p19p17/16-0--|
|---------------------------------------------------------------------|
|---------------------------------------------------------------------|
|---------------------------------------------------------------------|
|---------------------------------------------------------------------|

|---------------------------------------------------------------------|
|-20p19p17/16-------------16------------------------------------------|
|------------19p17p16h17-----17p16--------17-------------20~~~~~~-----|
|------------------------------------19-------19---16-----------------|
|---------------------------------------------------------------------|
|---------------------------------------------------------------------|

|--------------------------------------------|------------------------|
|--------------------------------------------|-------------10----8----|
|-------5-----------------------------7------|-------------11----9----|
|-------5--------------------5--------7------|--9---------------------|
|-------3--------------------5--------5------|--7---------------------|
|----------------------------3---------------|--0---------------------|

|---------------|----------------------|---5----7---8---|-9-----11----|
|-10--12--13----|-----13---10---12-----|---7----8---10--|-8-----12----|
|-11--12--14----|-----14---11---12-----|----------------|-------------|
|---------------|----------------------|----------------|-------------|
|---------------|----------------------|----------------|-------------|
|---------------|----------------------|----------------|-------------|

|---------8-----|--------7----|------7--8----|-9---11---|-12---14-21b-|
|-10--12--10----|-13-10--8----|--10--8--10---|-8--------|-8----10-12--|
|-11--12--------|-14-11-------|--11----------|-----11---|-------------|
|---------------|-------------|--------------|----------|-------------|
|---------------|-------------|--------------|----------|-------------|
|---------------|-------------|--------------|----------|-------------|

|---------------------------------------------------------------------|
!!!!!!!!!!!!!!!!!!!!!!!!!!!!!!DIVIRTAM-SE!!!!!!!!!!!!!!!!!!!!!!!!!!!!!!
|---------------------------------------------------------------------|
Composição de Yngwie Malmsteen
Colaboração e revisão:
  • Franklin Oliveira
6.032 exibições
    • ½ Tom
    • A
    • Bb
    • B
    • C
    • Db
    • D
    • Eb
    • E
    • F
    • F#
    • G
    • Ab
  • Adicionar à lista

    0 comentários

    Ver todos os comentários

    Conseguiu tocar?

    0 Tocaram 1 Ainda não

    Grave um vídeo tocando I am a Viking e nos envie!

    00:00 / 00:00
    outros vídeos desta música
    repetir qualidade Automático
    Outros vídeos desta música
    00:00 / 00:00
    Automático

    Cifra Club Pro

    Aproveite o Cifra Club com benefícios exclusivos e sem anúncios
    Cifra Club Pro
    Aproveite o Cifra Club com benefícios exclusivos e sem anúncios
    OK