Cifra Club

Remedy

Zac Brown Band

Cifra: Principal (violão e guitarra)
tom: Eb (forma dos acordes no tom de D) Capotraste na 1ª casa
                        D
I've been looking for a sound
              G     D
That makes my heart sing
                    D
Been looking for a melody
               A            D
That makes the church bells ring
                    D
Not looking for the fame
        G               D
Or the fortune it might bring
    G        A        D 
In love, in music, in life

[Solo 1]

   D                        G
E|4/6-6-6h8p6--------6-6-8-11-8-6-8---|
B|-----------6/8-6-4----------------8-|
G|------------------------------------|
D|------------------------------------|
A|------------------------------------|
E|------------------------------------|

   D                A           D
E|6-6-6h8p6---------------------------|
B|---------6/8-6-4-6-6-8-6-4-4-4~~----|
G|--------------------------5---------|
D|------------------------------------|
A|------------------------------------|
E|------------------------------------|

D
Jesus preached the golden rule
G                D
Buddha taught it too
       G               D
Gandhi said eye for an eye
           A
Makes the whole world go blind
                    D
With a little understanding
                   G                      D
We can break these chains that we've been handed
      G          D
I've got the medication
A               D
Love is the remedy

            Bm  A        G
Pray to be stronger and wiser
      D               A   Bb°
Know you get what you give
Bm   A     G
Love one another
  D            A
Aamen (amen), amen

                              D
I've been thinking about the mark
              G  D
That I'll be leaving
                    D
Been looking for a truth
         A    D
I can believe in
                   D
I got everything I need
          G    A     Bm   A
Let this heart be my guide
   Em G      A  G     D
In love, in music, in life

[Solo 2]

(Violão 1)

                  D                     G   D
E|---------------------------------------------|
B|---------------------------------------------|
G|----------------------------------3-3/5~-----|
D|-----1-3-3-1-3h5~6-5-3-5~1h3h4h5-6-5----3/5~~|
A|1-3-5----------------------------------------|
E|---------------------------------------------|

  D                             A
E|---------------------------------------------|
B|---------------------------------------------|
G|-----3---3--3/5-5/3--------------------------|
D|5-5-6-6-5-5--------6-5-3-5-3-1~--------------|
A|---------------------------------------------|
E|---------------------------------------------|

   D                     G   A   Bm             (G  A  D   G A D)
E|---------------------------------------------|
B|------------------------4---3---4------------|
G|---------------------3-1-1-3-3-5-5-----------|
D|------------------0h5------------------------|
A|--------------------------1---3--------------|
E|----------------------4----------------------|

(Violão 2)

  (D G D)                               A                          D
E|--------3--1---1---3---3~--3--1-----11-----------------3p1--------|
B|-------------4------------------4-3-11---3~-----1h2h3h4---4p1h4-4-|
G|------------------------------------------------------------------|
D|------------------------------------------------------------------|
A|------------------------------------------------------------------|
E|------------------------------------------------------------------|

   D                     G   A   Bm
E|-1h3p1------------3-6-8--8-6----|
B|------h4-1h4-4--4-------------8-|
G|--------------------------------|
D|--------------------------------|
A|--------------------------------|
E|--------------------------------|

  Bm                    G              A             D   G A D
E|-13/11-10/8-8/6-1h3p1--6------------------------------------|
B|---------------------4--8-6-8-6-1-3-4-1---------------------|
G|---------------------------------------3-3------------------|
D|----------------------------------------5-5-3h5p3-1~3-1---1-|
A|--------------------------------------------------------5---|
E|------------------------------------------------------------|

                     D
I'm not saying I'm a wise man
                     G                    D
Heaven knows there's much that I'm still finding
           G             D       A
Making my way down this winding road
                      D
Holding on to what I love
              G        A     Bm  A
Yeah, and leaving the rest behind
     G Em      A G        D
For love, for music, for life

            Bm   A       G
Pray to be stronger and wiser
     D                A   Bb°
Know you get what you give
Bm   A     G
Love one another

[Solo 1]

   D                        G
E|4/6-6-6h8p6--------6-6-8-11-8-6-8---|
B|-----------6/8-6-4----------------8-|
G|------------------------------------|
D|------------------------------------|
A|------------------------------------|
E|------------------------------------|

   D                A           D
E|6-6-6h8p6---------------------------|
B|---------6/8-6-4-6-6-8-6-4-4-4~~----|
G|--------------------------5---------|
D|------------------------------------|
A|------------------------------------|
E|------------------------------------|

A                   D
Love is the remedy

D                  G
We're all in this world together
D                     G
Life's a gift that we have to treasure
D                G
Happiness, now that is the measure
 A                D
Love is the remedy   (Love is the remedy)

D            G
Everyone can be forgiven
D            G
One love and one religion
D             G
Open up your heart and listen
 A                D
Love is the remedy

            Bm  A        G
Pray to be stronger and wiser
         D                A   Bb°
And know you get what you give
Bm  A   D   A     G
God is love one another
   D            A   Bb°      D
Aaamen (amen), amen, a-a-a-amen (amen)
00:00 / 00:00
Outros vídeos desta música
Repetir
Outros vídeos desta música
Composição de Brown / Moon / Wyatt Durrette / Keb' Mo'
Colaboração e revisão:
  • Rafael Tiveron
19 exibições
    • ½ Tom
    • A
    • Bb
    • B
    • C
    • Db
    • D
    • Eb
    • E
    • F
    • F#
    • G
    • Ab
  • Adicionar à lista

    0 comentários

    Ver todos os comentários

    Conseguiu tocar?

    0 Tocaram 0 Ainda não

    Grave um vídeo tocando Remedy e nos envie!

    Entre para oCifra Club PRO

    Tenha acesso a benefícios exclusivos no App e no Site

    • Chega de anúncios

    • Prioridade de compra em lançamentos

    • Mais recursos no app do Afinador

    • Atendimento Prioritário

    • Descontos nos produtos Cifra Club

    • Ajude a produzir mais conteúdo

    00:00 / 00:00

    Cifra Club Pro

    Aproveite o Cifra Club com benefícios exclusivos e sem anúncios
    Cifra Club Pro
    Aproveite o Cifra Club com benefícios exclusivos e sem anúncios
    OK