Cifra Club

Roots

Zac Brown Band

Cifra: Principal (violão e guitarra)
tom: B (forma dos acordes no tom de A) Capotraste na 2ª casa
[Intro] A5  E  F#m7  D5
        A5  E  F#m7  D5

E|--------4~~-4-5-4~------------------5~-4~|
B|4~~-6~~------------6~-4~~-6~~------------|
G|------------------------------6~~-6------|
D|-----------------------------------------|
A|-----------------------------------------|
E|-----------------------------------------|

E|--------4~~-4-5-4~-----------------------|
B|4~~-6~~------------6~-4~~-6~~------------|
G|------------------------------6~~--------|
D|-----------------------------------------|
A|-----------------------------------------|
E|-----------------------------------------|

D5       A            A7M(9)   A
  My first best friend    was a 6 string
D5      A         A7M(9)      A
  Took him with me everywhere I go
D5       A      A7M(9)        A
  When I was 18,     bought a Dodge van
D5         A          A7M(9)        A      (E)
  Found a drummer and made the road my home

F#m
   Ohh I wouldn't change a thing
D                   E
  It made the man I am today

[Refrão]

   A5    E
My roots always keep me grounded
F#m7     D5
Roots remind me where I'm from
A5                E
  Even when I'm a thousand miles away from my
F#m7        D5
Roots I'm home

D5      A     A7M(9)          A
  Every Friday      you could find me
D5         A      A7M(9)          A
  At Dixie Tavern playing with my band
D5              A         A7M(9)             A
  We'd start the show with      a round of whiskey
D5             A              A7M(9)            A   (E)
  And play our hearts out and wished it'd never end

F#m
   Ohh I wouldn't change a thing
D                   E
  It made the man I am today

[Refrão]

   A5    E
My roots always keep me grounded
F#m7     D5
Roots remind me where I'm from
A5                E
  Even when I'm a thousand miles away from my
F#m7        D5
Roots I'm home

[Solo]

E|------------------------------|
B|5-5-4-4-4-4-2---2~-2---2-4-2--|
G|4-4-4-4-4-4---4------4-------4|
D|------------4-4-4~-4-4-4-4-4-4|
A|------------------------------|
E|------------------------------|

    D5  A           A7M(9)        A
E|-------------------------------|
B|5-5-4-4-4-4-2---2-4-2-------2-4|
G|4-4-4-4-4-4---4--------4~-4---4|
D|------------4-4-4-4-4--4~-4-4--|
A|-------------------------------|
E|-------------------------------|

E|--11-11/16^^--------------|
B|12-----------16^16/14-12~~|
G|--------------------------|
D|--------------------------|
A|--------------------------|
E|--------------------------|

E|---11-14-17/19^-16-14-16-14-11-14/16^-14-----------------|
B|12---------------------------------------16^/14-12-11-12~|
G|---------------------------------------------------------|
D|---------------------------------------------------------|
A|---------------------------------------------------------|
E|---------------------------------------------------------|

D5             A      A7M(9)              A
  We'd get 'em singing      "Don't Stop Believing"
D5            A         A7M(9)          A
  Then follow up with a cold beer on a Friday night
D5         A      A7M(9)        A
  Always dreaming one day we'd play with
D5         A        A7M(9)       A    (E)
  All our heroes we cover every night

F#m
   Flying high all our dreams came true
D                  E
  You've given me wings

[Refrão]

    A5    E
And roots always keep me grounded
F#m7     D5
Roots remind me where I'm from
A5                E
  Even when I'm a thousand miles away from my
F#m7        D5
Roots I'm home

[Refrão]

   A5    E
My roots always keep me grounded
F#m7     D5
Roots remind me where I'm from
    Bm
My roots
                 E
Even when I'm a thousand miles away from my
F#m7        D5
Roots I'm home

A5
Don't (Roots) give up
      E
Hold on a little longer
F#m7
What (Roots) don't kill you
D5
Only makes you stronger

A5
Don't give up
      E
Hold on a little longer
F#m7
What don't kill you
D5                         A5
Only makes you stronger.. Roots
00:00 / 00:00
Outros vídeos desta música
Repetir
Outros vídeos desta música
Composição de Coy Bowles, Brown, Moon, Simonetti
Colaboração e revisão:
  • Rafael Tiveron
108 exibições
    • ½ Tom
    • A
    • Bb
    • B
    • C
    • Db
    • D
    • Eb
    • E
    • F
    • F#
    • G
    • Ab
  • Adicionar à lista

    0 comentários

    Ver todos os comentários

    Conseguiu tocar?

    0 Tocaram 0 Ainda não

    Grave um vídeo tocando Roots e nos envie!

    Entre para oCifra Club PRO

    Tenha acesso a benefícios exclusivos no App e no Site

    • Chega de anúncios

    • Prioridade de compra em lançamentos

    • Mais recursos no app do Afinador

    • Atendimento Prioritário

    • Descontos nos produtos Cifra Club

    • Ajude a produzir mais conteúdo

    00:00 / 00:00

    Cifra Club Pro

    Aproveite o Cifra Club com benefícios exclusivos e sem anúncios
    Cifra Club Pro
    Aproveite o Cifra Club com benefícios exclusivos e sem anúncios
    OK