Cifra Club

Aprenda

Dead As Yesterday

Zakk Wylde

Cifra: Principal (violão e guitarra)
tom: D
Tuning: D A D G B E

E|----2----3-------2-----3-------2----3--------------2------2---3-----2---3----2----------2------|
B|----------3-------------3-------------3--------------3---------3----------3--3------------3----|
G|------0------------------------------------------0----------0----------------0--------0--------|
d|--0---0-------------0------------0--------------0-----------0---------0------0-------0---------|
A|---------------3----3--------2---2---------0h2-------------------3----3------2--0h2------------|
D|-------------------------------------------------------0------------------------------------0--|

E|-2---3----2---3----2---3------------------------------0-----2---3----2-----------------------|
B|------3--------3--------3-------------------------------3-----3---3--3-----------------------|
G|--0----------------------------0-------0---------0-------------------2-----------------------|
d|--0---------0--------0--------0----------0---------0-----------------0-----------------------|
A|--------3---3----2---2----0h2------------------0---------------------------------------------|
D|---------------------------------0-1-2-----4-5------------0----------------------------------|

E|---2---3-----2---3-----2---3-----------2-------------------|
B|---------3---------3---------3-----------3-----------------|
G|-----0-------------------------------0---------------------|
d|-0---0---------0---------0---------0-----------------------|duas vezes
A|-----------3---3-----2---2-----0h2-------------------------|
D|--------------------------------------------0--------------|

E|-2---3-----2---3-----2---3-------------------------------0----2---3----2--2-----|
B|-------3---------3---------3-------------------------------3----3---3--3--3-----|
G|---0-------------------------------0-------0---------0-----------------2--0-----|
d|---0---------0---------0---------0-----------0---------0---------------0--0-----|
A|---------3---3-----2---2-----0h2-------------------0----------------------------|
D|-------------------------------------0-1-2-----4-5-----------0------------------|

E|-2---3-----2---3-----2---3-----------2-----2---3-----2---3-----2---3---------------|
B|---3---3---------3---------3-----------3---------3---------3---------3-------------|
G|-----------------------------------0---------0-------------------------------0-----|
d|-------------0---------0---------0-----------0---------0---------0---------0-------|
A|---------3---3-----2---2-----0h2-------------------3---3-----2---2-----0h2---------|
D|-----------------------------------------0-----------------------------------------|

E|---------------------0------2---------------------------------------|
B|-----------------------3----3---------------------------------------|
G|-------0---------0----------2---------------------------------------|
d|---------0---------0--------0---------------------------------------|
A|---------------0----------------------------------------------------|
D|-0-1-2-----4-5-----------0------------------------------------------|

E|--2--0--0--0----|
B|--3--3--3--3----|
G|--4--2--0--0----|
d|--4--4--0--4----|refrão repete quatro vezes
A|--2--0--0--0----|
D|--------5--5----|

E|---2---3-----2---3-----2---3-------------------------------0-----2---3-----3----------|
B|---------3---------3---------3-------------------------------3-----3---3-----3--------|
G|-----0-------------------------------0-------0---------0------------------------------|
d|-0---0---------0---------0---------0-----------0---------0---------------0------------|
A|-----------3---3-----2---2-----0h2-------------------0--------------------------------|
D|---------------------------------------0-1-2-----4-5-----------0----------------------|

E|---------------------0-----2---3---2------------------0-----|
B|-----------------------3-----3---3---3----------------3-----|
G|-------0---------0---------------------------0--------0-----|
d|---------0---------0---------------------------0------2-----|
A|---------------0--------------------------------------0-----|
D|-0-1-2-----4-5-----------2-------------0-1-2-----4-5--------|
                                       
E|-------------------------------------------------------------2---3-----2---3---------|
B|-------3---------3--------3---------3---------3--------3-------3---3-----3---3-------|
G|---0-----0---0-----0---0----0---0-----0---0-----0---0----0---------------------------|
d|-----0---------0---------0--------0---------0---------0------------------------------|
A|-3---------3---------2--------2---------1---------1----------------------------------|
D|-----------------------------------------------------------0---------0---------------|

E|-----------------------------------------0------------------------|
B|-------3---------3---------3---------3---3------------------------|
G|---0-----0---0-----0---0-----0---0-----0-0------------------------|
d|-----0---------0---------0---------0-----0------------------------|
A|-3---------3---------2---------2---------1------------------------|
D|------------------------------------------------------------------|
Composição de Zakk Wylde
Colaboração e revisão:
  • ricardo orlandi
40.927 exibições
  • Simplificar cifra
    • ½ Tom
    • A
    • Bb
    • B
    • C
    • Db
    • D
    • Eb
    • E
    • F
    • F#
    • G
    • Ab
  • Adicionar à lista

    0 comentários

    Ver todos os comentários
    00:00 / 00:00
    outros vídeos desta música
    repetir qualidade Automático
    Outros vídeos desta música
    00:00 / 00:00
    Automático

    Cifra Club Pro

    Aproveite o Cifra Club com benefícios exclusivos e sem anúncios
    Cifra Club Pro
    Aproveite o Cifra Club com benefícios exclusivos e sem anúncios
    OK