Cifra Club

Aprenda

Farewell Ballad

Zakk Wylde

Cifra: Principal (violão e guitarra)
tom: F
Intro: Dm  C  Bb  A7
E|---------------------------------------------------
B|---------------------------------------------------
G|----------10---12---b13r12p10----------------------
D|-10h12--------------------------12~~---------------
A|---------------------------------------------------
E|---------------------------------------------------

E|---------------------------------------------------
B|----------13---------------------------------------
G|-12/14~---------14\12~-----------------------------
D|---------------------------------------------------
A|---------------------------------------------------
E|---------------------------------------------------

E|---------------------------------------------------
B|---------------------------------------------------
G|-10h12--10~----9h10--9~----------------------------
D|---------------------------10/12--11~---12--12/14~-
A|---------------------------------------------------
E|---------------------------------------------------


Primeira Parte: Dm  C  Bb  C
                Dm  C  Bb  C
E|---------------------------------------------------
B|-------13-------------------------13---------------
G|-9/14------14\12--10~------10/14------14\12p10-12~-
D|---------------------------------------------------
A|---------------------------------------------------
E|---------------------------------------------------

E|---------------------------------------------------
B|--------13--------------------13-------------------
G|-12/14------14\12--10--12/14------14\12--10--12/14-
D|---------------------------------------------------
A|---------------------------------------------------
E|---------------------------------------------------

E|---------------------------------------------------
B|-13------13h15--13~--------------------------------
G|-----14--------------------------------------------
D|---------------------------------------------------
A|---------------------------------------------------
E|---------------------------------------------------

E|-b17r---b17r---b17r---b17r---b17r---b17r15p13------
B|---------------------------------------------------
G|---------------------------------------------------
D|---------------------------------------------------
A|---------------------------------------------------
E|---------------------------------------------------

E|-15--13h15~--13b-----------------------------------
B|-------------------15~-----15--13------13h15---13--
G|-----------------------------------14--------------
D|---------------------------------------------------
A|---------------------------------------------------
E|---------------------------------------------------

E|----------------------------13---------------------
B|-------------------------13----13-10---------------
G|-14\12p10--12~~-10-12b14--------------b14r12p10-12~
D|---------------------------------------------------
A|---------------------------------------------------
E|---------------------------------------------------


Segunda Parte: Dm  C  Bb  C
               Dm  C  Bb  C
E|-----------10--12--13--12b13r~--10----13----10-----
B|-13b15~~---------------------------13----13--------
G|---------------------------------------------------
D|---------------------------------------------------
A|---------------------------------------------------
E|---------------------------------------------------

E|---------10...-------10-10----13-10-10-10-15-10----
B|-13b15~~-------13-13-------13-------------------13-
G|---------------------------------------------------
D|---------------------------------------------------
A|---------------------------------------------------
E|---------------------------------------------------

E|-10-15-10----10-15-10----10-10----10---------------
B|----------13----------13-------13----15-10-15p10---
G|---------------------------------------------------
D|---------------------------------------------------
A|---------------------------------------------------
E|---------------------------------------------------

E|---------------------------------------------------
B|----10-15p10----10-15p10----10-15p10----10-15p10---
G|-13----------13----------13----------13----------13
D|---------------------------------------------------
A|---------------------------------------------------
E|---------------------------------------------------

E|---------------------------------------------------
B|-10...--------------13p10-----13b15r---------------
G|-------13...-10-x-x-------x-x----------------------
D|---------------------------------------------------
A|---------------------------------------------------
E|---------------------------------------------------

E|-10------------------------------------------------
B|----13-10------------------------------------------
G|----------12b14r12p10-12~~-------------------------
D|---------------------------------------------------
A|---------------------------------------------------
E|---------------------------------------------------

E|-15b17r--b17r--b17r--b17r--b17~~r--b17~~-----------
B|---------------------------------------------------
G|---------------------------------------------------
D|---------------------------------------------------
A|---------------------------------------------------
E|---------------------------------------------------

E|-b17r15p13-15~~----15--15p13--13p12--13p12--10--12-
B|---------------------------------------------------
G|---------------------------------------------------
D|---------------------------------------------------
A|---------------------------------------------------
E|---------------------------------------------------

E|-10h12p10----10-----------10-----------------------
B|----------13----13b15~~------13p10--------10-13p10-
G|-----------------------------------12b14-----------
D|---------------------------------------------------
A|---------------------------------------------------
E|---------------------------------------------------

E|---------------------------------------------------
B|----10-15p10----10-15p10----10-13p10----10---------
G|-12----------12----------12----------12----12p10---
D|---------------------------------------------------
A|---------------------------------------------------
E|---------------------------------------------------

E|---------------------------------------------------
B|---------------------------------------------------
G|-12~~--12b14r-12~~---------------------------------
D|---------------------------------------------------
A|---------------------------------------------------
E|---------------------------------------------------


Terceira Parte: Bb  C
                Dm
E|-15-17-15-17-15-17-15-17-15-17-15-17---------------
B|---------------------------------------------------
G|---------------------------------------------------
D|---------------------------------------------------
A|---------------------------------------------------
E|---------------------------------------------------

E|-13-15-13-15-13-15-13-15-13-15-13-15---------------
B|---------------------------------------------------
G|---------------------------------------------------
D|---------------------------------------------------
A|---------------------------------------------------
E|---------------------------------------------------

E|-12-13-12-13-12-13-12-13-12-13-12-13---------------
B|---------------------------------------------------
G|---------------------------------------------------
D|---------------------------------------------------
A|---------------------------------------------------
E|---------------------------------------------------

E|-10-12-10-12-10-12-10-12-10-12-10-12---------------
B|---------------------------------------------------
G|---------------------------------------------------
D|---------------------------------------------------
A|---------------------------------------------------
E|---------------------------------------------------

E|-15-17-15-17-15-17-15-17-15-17-15-17---------------
B|---------------------------------------------------
G|---------------------------------------------------
D|---------------------------------------------------
A|---------------------------------------------------
E|---------------------------------------------------

E|-13-15-13-15-13-15-13-15-13-15-13-15---------------
B|---------------------------------------------------
G|---------------------------------------------------
D|---------------------------------------------------
A|---------------------------------------------------
E|---------------------------------------------------

E|-12-13-12-13-12-13-12-13-12-13-12-13---------------
B|---------------------------------------------------
G|---------------------------------------------------
D|---------------------------------------------------
A|---------------------------------------------------
E|---------------------------------------------------

E|-10-12-10-12-10-12-10-12-10-12-10-12---------------
B|---------------------------------------------------
G|---------------------------------------------------
D|---------------------------------------------------
A|---------------------------------------------------
E|---------------------------------------------------

E|---------------------------------------------------
B|-13b15~~--13-------13------------------------------
G|----------12b14~~--12b14~~--10--12--12b13r12-10b11-
D|---------------------------------------------------
A|---------------------------------------------------
E|---------------------------------------------------

E|---------------------------------------------------
B|---------------------------------------------------
G|---------------------------------------------------
D|-12~~----------------------------------------------
A|---------------------------------------------------
E|---------------------------------------------------
Colaboração e revisão:
  • Vinícius Dias
  • marcos rolim
226.627 exibições
    • ½ Tom
    • A
    • Bb
    • B
    • C
    • Db
    • D
    • Eb
    • E
    • F
    • F#
    • G
    • Ab
  • Adicionar à lista

    0 comentários

    Ver todos os comentários
    00:00 / 00:00
    outros vídeos desta música
    repetir qualidade Automático
    Outros vídeos desta música
    00:00 / 00:00
    Automático
    Capítulos
    • Início
    • Tocando a música
    • Configuração dos Efeitos
    • Tonalidade da música e Shapes da Escala
    • Tocando Introdução
    • Ensinando Introdução
    • Tocando Primeira Parte
    • Ensinando Primeira Parte
    • Tocando Segunda Parte
    • Ensinando Segunda Parte
    • Tocando Terceira Parte
    • Ensinando Terceira Parte
    • Encerramento

    Cifra Club Pro

    Aproveite o Cifra Club com benefícios exclusivos e sem anúncios
    Cifra Club Pro
    Aproveite o Cifra Club com benefícios exclusivos e sem anúncios
    OK