Cifra Club

Aprenda

In This River

Zakk Wylde

Cifra: Principal (violão e guitarra)
tom: G
Intro:
         Em7/B   C9      G      D4/F#
E|-------3-----------------------------|
B|-------3-------3-------------3------|
G|----0----------0------0------2------|
D|---2---------2--------0----0----0---|
A|-----------3--------2-----0----------|
E|------------------3-------------------|

E|--------------------------------------------------------|
B|-------12~----------------------------------------------|
G|------------12~-13~-12~--10---12~-13~-12~--10b-10b------|
D|--------------------------------------------------------|
A|---7~--------------------------------------------------|
E|--------------------------------------------------------|

Em              C
I've been around this world
G         D
Yet I see no end
Em         C               G          D
All shall fade to black again and again
Em                  C
This storm that's broken me
     G      D
My only friend

Refrão:
 G                  C
In this river all shall fade to black
 G                     C
In this river ain't no comin' back
 G                             Am            C
In this river all shall fade to black

Ain't no coming back
E|-------------------------------------------------|
B|-------------------------------------------------|
G|------------4~-5~-4~--2~----4~-5~-4~--2~---4~~---|
D|-------------------------------------------------|
A|-------------------------------------------------|
E|-------------------------------------------------|

( Em  C  G  D )

Em            C
Withdrawn I step away
          G       D
Just to find myself
Em             C
The door is closed again
     G        D
The only one left
Em                C
This storm that's broken me
    G      D
My only friend

(Refrão 2x)
Composição de Zakk Wylde
Colaboração e revisão:
41.434 exibições
    • ½ Tom
    • A
    • Bb
    • B
    • C
    • Db
    • D
    • Eb
    • E
    • F
    • F#
    • G
    • Ab
  • Adicionar à lista

    0 comentários

    Ver todos os comentários
    00:00 / 00:00
    outros vídeos desta música
    repetir qualidade Automático
    Outros vídeos desta música
    00:00 / 00:00
    Automático

    Cifra Club Pro

    Aproveite o Cifra Club com benefícios exclusivos e sem anúncios
    Cifra Club Pro
    Aproveite o Cifra Club com benefícios exclusivos e sem anúncios
    OK