Tiro Certo (part. Gusttavo Lima)

Zé Felipe

Composição de: Denner Ferrari / Felipe Goffi / Gustavo Henrique / Jimmy Luzzo
tom: F (forma dos acordes no tom de D ) Capotraste na 3ª casa
[Intro] G  A9  D9  Bm7

E|-10-10-10-----------------------------------------------|
B|------------------------3-3-3-2----------------2-2-2--0-|
G|--------------2----2h4--4-4-4-2------2----2/4--2-2-2--2-|
D|-----------2h4--2-4---------------2/4--4-2--------------|
A|--------------------------------------------------------|
E|--------------------------------------------------------|

[Primeira Parte]

  G                      A9
Amar não tava nos meus planos
     D9                    Bm7
Não tava procurando mas eu encontrei
    G              A9
E agora tô aqui falando
      D9                     Bm7
Foi o erro mais lindo que eu acertei

[Pré-Refrão]

   G     A9             D9
Você, você virou o meu mundo 
            Bm7
De ponta cabeça
       G               A9
Se um dia do amor duvidei
                  D9
Hoje eu tenho certeza

[Refrão]

      D9           A9
Tiro certo bem na mosca
          Em7                    G
Eu nem mirei quando acertei sua boca
      D9           A9
Tiro certo bem na mosca
         Em7                     G
Era pra ser só uma noite eu acertei
      D9           A9
Tiro certo bem na mosca
          Em7                    G
Eu nem mirei quando acertei sua boca
      D9           A9
Tiro certo bem na mosca
         Em7                     G
Era pra ser só uma noite eu acertei

D9        A9
  Ai ai ai ai ai ai 
         Em7
Era pra ser só uma noite 
        G                D9
Eu acertei foi uma vida toda
        A9
Ai ai ai ai ai ai 
         Em7
Era pra ser só uma noite 
        G 
Eu acertei

( G  A9  D9  Bm7 )

[Primeira Parte]

  G                      A9
Amar não tava nos meus planos
     D9                    Bm7
Não tava procurando mas eu encontrei
    G              A9
E agora tô aqui falando
      D9                     Bm7
Foi o erro mais lindo que eu acertei

[Pré-Refrão]

   G     A9             D9
Você, você virou o meu mundo 
            Bm7
De ponta cabeça
       G               A9
Se um dia do amor duvidei
                  D9
Hoje eu tenho certeza

[Refrão]

      D9           A9
Tiro certo bem na mosca
          Em7                    G
Eu nem mirei quando acertei sua boca
      D9           A9
Tiro certo bem na mosca
         Em7                     G
Era pra ser só uma noite eu acertei
      D9           A9
Tiro certo bem na mosca
          Em7                    G
Eu nem mirei quando acertei sua boca
      D9           A9
Tiro certo bem na mosca
         Em7                     G
Era pra ser só uma noite eu acertei

D9        A9
  Ai ai ai ai ai ai 
         Em7
Era pra ser só uma noite 
        G                D9
Eu acertei foi uma vida toda
        A9
Ai ai ai ai ai ai 
         Em7
Era pra ser só uma noite 
        G  D9
Eu acertei

E|-10-10-10-----------------------------------------------|
B|------------------------3-3-3-2----------------2-2-2--0-|
G|--------------2----2h4--4-4-4-2------2----2/4--2-2-2--2-|
D|-----------2h4--2-4---------------2/4--4-2--------------|
A|--------------------------------------------------------|
E|--------------------------------------------------------|
Página 1 / 1

Letras e título
Acordes e artista

resetar configurações
OK