Enviar cifraEntrar

Instinto Animal

Zé Henrique E Gabriel

Cifra: Principal
exibições 266.664
Tom: F#
(intro)  F# C# Ebm B F# C# B C# F#


(solo intro)


E|----------------7-7--6-6----------------------------------------------------|
B|-------4-4h2-2------------9-9--7-7--6-6-7-9h11-9-7-7--7-9h7-7-7--6-6h7--4-4-|
G|-3-4-6----------------------------------------------------------------------|
D|----------------------------------------------------------------------------|
A|----------------------------------------------------------------------------|
E|----------------------------------------------------------------------------|


E|---------7h6-6-6--9-7-7-6-6h7-6---------------------------------------------|
B|-4-6-7-9-------------------------9-9--7-6-4---------------------------------|
G|--------------------------------------------6-4-----------------------------|
D|-------------------------------------------------8-6------------------------|
A|----------------------------------------------------------------------------|
E|----------------------------------------------------------------------------|


F#               C#              Ebm   B
Dizem que o homem, tem instinto animal
         F#                           C#
Só sei dizer que o homem que ama uma mulher
                          B
Não cai, Não trai o seu amor
F#                                C#
Fica frágil, bobo e de caçador é caça
  B       F#
É assim que sou.

B
Homem pra ser homem, não precisa provar
                              F#
Que é homem conquistando um harém
Mas precisa várias vezes conquistar o amor
             B
Da mulher que tem,
             F#
Sonhar teus sonhos.
B
Tem que ter o dom de apaixonar,
                                       F#
Não ter vergonha de falar que é louco por ela
C#                                 B                F#   C#
Quando uma mulher te ama, ama pra valer, não duvide dela

(refrão)
 C#                    F#
 Não tem segredos no amor
                       C#
Não tem mistério a paixão
  G#m                               B       F#      C#
Quem ama de verdade sabe tudo um do outro, é coração
C#                   F#
Não tem segredos no amor
                    C#
Não tem mistério a paixão
      G#m/F#                            B
De uma costela foi gerado um ser original
G#m                                       C#
Pra ela dou a vida e sei que tenho só por ela,
                F#
Esse Instinto Animal

B
Homem pra ser homem, não precisa provar
                              F#
Que é homem conquistando um harém
Mas precisa várias vezes conquistar o amor
              B
Da mulher que tem
              F#
Sonhar teus sonhos
B
Tem que ter o dom de apaixonar,
                                          F#
Não ter vergonha de falar que é louco por ela
C#                                  B               F#   C#
Quando uma mulher te ama, ama pra valer, não duvide dela

(refrão)

G#m                                        B  C#
Pra ela dou a vida e sei que tenho só por ela,
                 F#
Esse Instinto Animal
  • 1
  • 2
  • 3
  • 4
  • 5
  • 6
  • 7
  • 8
  • 9
  • 10
  • 11
  • 12
    Acordes para:
      Composição: Zé Henrique e MichellColaboração e revisão:
      • tiago_hcs
      • Carol
      • Lucas

      0 comentários

        mostrar mais comentários

        Conseguiu tocar?

        8tocaram0ainda não

        Grave um vídeo tocando Instinto Animal e mande pra gente!

        00:00 / 00:00
        outros vídeos desta música
        repetirqualidadeautomática
        • automática
        Outro vídeos desta música
          00:00 / 00:00
          automática
          • automática
          Acordes para:violão e guitarra
          dificuldadeexibiçõescontribuições
          1 versão de Guitar Proformatodownloadscontribuição
          fecharplay/pause subir/descer velocidade
            acordes
            fechar
            OK
            Feedback