Enviar cifraEntrar

O Que Combina Comigo É Você

Zé Henrique E Gabriel

Cifra: Principal
exibições 276.962
Tom: G# (com acordes na forma de F#) Capotraste na 2ª casa

 Intro: F# Ebm B Abm C#
E|---------------------------------------------------------9------------------|
B|-----------------------------------------------------------9\6-6\4-4/6-6/7--|
G|----------------------------------------------------------------------------|
D|-----------4-4---4--4---4---4---4--4---4--4---4-4/6-3-----------------------|
A|-------4/6-----6------6-------6------6------6-------------------------------|
E|-2-4/6----------------------------------------------------------------------|


F#
O que combina com frio é cobertor
Ebm
O que combina com a noite é o luar
G#m
Praia e mar só combinam com calor
B9                  C#9
O que combina com festa é namorar

F#
O que combina com sede é água doce
Ebm
O que combina com riso é prazer
G#m
Primavera combina com as flores
B9                      C#9   G#m    Bbm    C#9
O que combina comigo é você, você, você, você...

Refrão:
Ebm   B9                C#9
Todo anjo é cupido de alguém
G#m             B9               F#
O anjo que te flechou me acertou também
Ebm  B9                C#9
Uma flecha em dois corações
G#m                    B9          F#       Ebm
Combinar como a gente combina não tem ninguém
G#m             B9              F#
Combinar como a gente combina, ninguém

E|------------------------------------------------------|
B|------------------------------------------------------|
G|------------------------------------------------------|
D|-----------4-4---4--4---4---4---4--4---4--4---4-4/6-3-|
A|-------4/6-----6------6-------6------6------6---------|
E|-2-4/6------------------------------------------------|


E|------------------------------------------------------|
B|---------7-7---7-7---7-7---7-7---7-7-7-7--4-4/7-7/8---|
G|-----6h8-----8-----8-----8-----8----------------------|
D|-6h8--------------------------------------------------|
A|------------------------------------------------------|
E|------------------------------------------------------|


F#
O que combina com sede é água doce
Ebm
O que combina com riso é prazer
G#m
Primavera combina com as flores
B9                      C#9   G#m   Bbm    C#9
O que combina comigo é você, você, você, você...

(Refrão 2x)

Ebm   B9                C#9
Todo anjo é cupido de alguém
G#m             B9               F#
O anjo que te flechou me acertou também
Ebm  B9                C#9
Uma flecha em dois corações
G#m                    B9          F#       Ebm
Combinar como a gente combina não tem ninguém
G#m             B9              F#
Combinar como a gente combina, ninguém
  • 1
  • 2
  • 3
  • 4
  • 5
  • 6
  • 7
  • 8
  • 9
  • 10
  • 11
  • 12
    Acordes para:

      0 comentários

        mostrar mais comentários

        Conseguiu tocar?

        8tocaram0ainda não

        Grave um vídeo tocando O Que Combina Comigo É Você e mande pra gente!

        00:00 / 00:00
        outros vídeos desta música
        repetirqualidadeautomática
        • automática
        Outro vídeos desta música
          00:00 / 00:00
          automática
          • automática
          Acordes para:violão e guitarra
          dificuldadeexibiçõescontribuições
          fecharplay/pause subir/descer velocidade
            acordes
            fechar
            OK
            Feedback