Cifra Club

Quando Olhei Pra Você

Zé Henrique e Gabriel

Cifra: Principal (violão e guitarra)
tom: E
Intro:
E|-------------------------------------------------------------
B|-7/9-9-9---7/5---7/9-9-9---7/5---7/9-9-9--------5/7/5--ph.12-
G|-6/9-9-9---6/4---6/9-9-9---6/4---6/9-9-9---4-4--4/6/4--------
D|-------------------------------------------------------------
A|-------------------------------------------------------------
E|-------------------------------------------------------------

       E         C#m
Quando olhei pra você
      A              B
Eu senti o amor me tocar
           E          C#m
Foi mais forte do que eu
      A              B
Impossível de se segurar


      A                     B
Descobri o prazer, que é ficar com você
      G#m              C#m
Toda força de um sentimento
      A                  B                       E
Foi desejo demais, foi muito mais que um só momento
      A                B
Eu me acho em você e você está mim
      G#m                    C#m
Somos duas partes que se encaixam
   A         B                E
Somos um e amor assim não é comum


      C#m                    A
Quando é pra valer ninguém pode esconder
    E                 B
O amor é um tiro no olhar
         C#m                 A
Foi de estremecer quando olhei pra você
     E      B        E
E senti o amor me tocar!


Solo:
E|---------------------------------------------------------------
B|--------------5-7--7/9-9--7/5--7/9-9--7/5--7/9-9-9-------7/9/7-
G|-----4---4h6----------------------------------------4-4--------
D|-4h6-----------------------------------------------------------
A|---------------------------------------------------------------
E|---------------------------------------------------------------


     A                     B
Descobri o prazer, que é ficar com você
      G#m              C#m
Toda força de um sentimento
      A                  B                       E
Foi desejo demais, foi muito mais que um só momento
      A                B
Eu me acho em você e você está mim
      G#m                    C#m
Somos duas partes que se encaixam
   A         B                E
Somos um e amor assim não é comum


      C#m                    A
Quando é pra valer ninguém pode esconder
    E                 B
O amor é um tiro no olhar
         C#m                 A
Foi de estremecer quando olhei pra você
     E      B        E
E senti o amor me tocar!


      C#m                    A
Quando é pra valer ninguém pode esconder
    E                 B
O amor é um tiro no olhar
         C#m                 A
Foi de estremecer quando olhei pra você ...

Solo final:
E|-----------------------7--
B|-7/9-9-9--7/5---7/9-9-----
G|--------------------------
D|--------------------------
A|--------------------------
E|--------------------------
00:00 / 00:00
Outros vídeos desta música
Repetir
Outros vídeos desta música
Composição de Donizete Sylva / Zé Henrique
Colaboração e revisão:
122.131 exibições
    • ½ Tom
    • A
    • Bb
    • B
    • C
    • Db
    • D
    • Eb
    • E
    • F
    • F#
    • G
    • Ab
  • Adicionar à lista

    0 comentários

    Ver todos os comentários

    Entre para oCifra Club PRO

    Tenha acesso a benefícios exclusivos no App e no Site

    • Chega de anúncios

    • Prioridade de compra em lançamentos

    • Mais recursos no app do Afinador

    • Atendimento Prioritário

    • Descontos nos produtos Cifra Club

    • Ajude a produzir mais conteúdo

    00:00 / 00:00

    Cifra Club Pro

    Aproveite o Cifra Club com benefícios exclusivos e sem anúncios
    Cifra Club Pro
    Aproveite o Cifra Club com benefícios exclusivos e sem anúncios
    OK