Cifra Club

A Farra Perdeu Pro Amor

Zé Neto e Cristiano

Cifra: Principal (violão e guitarra)
exibições 25.442
Tom: B (forma dos acordes no tom de A) Capotraste na 2ª casa
[Intro]  A

[Primeira Parte]

A
É não deu, olha eu
                 E
Sua previsão falhou
     F#m7
Pois é, to indo bem melhor
                       D
Trocar as cartas do tarô
   A
Olha eu aqui, respirando sem o teu amor
    E
Cê me conhece
Tudo que eu falei a boca gaguejou
 F#m7
Bem na mosca, acertou
                              D
No final a farra perdeu pro amor

[Refrão]

                A
Do que adianta ter várias no meu pé
               E
Se você tá na minha cabeça
               F#m7
Me faz a gentileza de dizer
                  D
O que não tem nas outras que tem em você
                A
Do que adianta ter várias no meu pé
               E
Se você tá na minha cabeça
                    F#m7
Daqui pra frente o povo vai saber
                    D             E
Tô transmitindo ao vivo pra dizer
               A
Tá foda sem você

[Solo] E  F#m7  D

Parte 1 de 3

E|----------------------------------------------------|
B|----2--5-2-5-2-5-5~-----10-10-9-7h9p7-5~------------|
G|----------------------------------------------------|
D|----------------------------------------------------|
A|----------------------------------------------------|
E|----------------------------------------------------|

Parte 2 de 3

E|----------------------------------------------------|
B|----5-2-5-2-5-5~-----10-10-9-7-5-7/-----------------|
G|--------------------------------------2~------------|
D|----------------------------------------------------|
A|----------------------------------------------------|
E|----------------------------------------------------|

Parte 3 de 3

E|----------------------------------------------------|
B|----5-5-5-5-7-5h7-----------------------------------|
G|---------------------2~---4/7~----------------------|
D|----------------------------------------------------|
A|----------------------------------------------------|
E|----------------------------------------------------|

[Primeira Parte]

   A
Olha eu aqui, respirando sem o teu amor
    E
Cê me conhece
Tudo que eu falei a boca gaguejou
 F#m7
Bem na mosca, acertou
                              D
No final a farra perdeu pro amor

[Refrão]

                A
Do que adianta ter várias no meu pé
               E
Se você tá na minha cabeça
               F#m7
Me faz a gentileza de dizer
                  D
O que não tem nas outras que tem em você
                A
Do que adianta ter várias no meu pé
               E
Se você tá na minha cabeça
                    F#m7
Daqui pra frente o povo vai saber
                    D             E
Tô transmitindo ao vivo pra dizer
               A
Tá foda sem você

E|----------------------------------------------------|
B|----2--5-2-5-2-5-5~---------------------------------|
G|----------------------------------------------------|
D|----------------------------------------------------|
A|----------------------------------------------------|
E|----------------------------------------------------|
Acordes para:

    0 comentários

    mostrar mais comentários

    Conseguiu tocar?

    8 tocaram 0 ainda não

    Grave um vídeo tocando A Farra Perdeu Pro Amor e mande pra gente!

    00:00 / 00:00
    outros vídeos desta música
    repetir qualidade Automático
    Outros vídeos desta música
    00:00 / 00:00
    Automático
    OK