Cifra Club

Aprenda

Banda Cover

Zé Neto e Cristiano

Cifra: Principal (violão e guitarra)
Já pensou em usar uma coleção de roupas do Cifra Club? Responda as perguntas abaixo e nos ajude nessa missão! →
tom: C#m
[Intro] C#m  E  G#m  F#

E|-----------------------------7h9-9p7------|
B|-----2-4-4h5--4h5-4-7h9-9p7---------------|
G|-1-4--------------------------------------|
D|------------------------------------------|
A|------------------------------------------|
E|------------------------------------------|

E|------------------------------------------|
B|-7h9-7--4h5-4--0h2-0--5/7-5h7p5p4---------|
G|----------------------------------4-3~----|
D|------------------------------------------|
A|------------------------------------------|
E|------------------------------------------|

[Primeira Parte]

 C#m               E
Se você não cuidar

Ó, cuidado!
 G#m            
Só você e o mundo inteiro
F#
   Quer ela do lado

C#m                     E
Ela sente falta de surpresa

E outras coisas
       G#m 
Que você não faz
              F#
Mas fazia um tempo atrás
           E
Cuidado rapaz!

[Refrão]

 C#m
Vai
            E
Quebra a rotina
 
E leva sua mina pra dançar
G#m                       F#
    Ao som daquela banda cover

 C#m
Vai
          E
Compra bebida de litro

E chapa com ela
G#m 
    Faz essa noite
      F#            C#m
A melhor da vida dela

            E
Quebra a rotina
 
E leva sua mina pra dançar
G#m                       F#
    Ao som daquela banda cover

 C#m
Vai
          E
Compra bebida de litro

E chapa com ela
G#m 
    Faz essa noite
      F#            
A melhor da vida dela

[Solo] C#m  E  G#m  F#
       C#m  E  G#m  F#

E|-----------------------------7h9-9p7------|
B|-----2-4-4h5--4h5-4-7h9-9p7---------------|
G|-1-4--------------------------------------|
D|------------------------------------------|
A|------------------------------------------|
E|------------------------------------------|

E|------------------------------------------|
B|-7h9-7--4h5-4--0h2-0--5/7-5h7p5p4-5-2-4-2-|
G|------------------------------------------|
D|------------------------------------------|
A|------------------------------------------|
E|------------------------------------------|

E|---------------------------------7h9-9p7--|
B|-5/7-5-4-5--4-4h5--4h5-4-7h9-9p7----------|
G|------------------------------------------|
D|------------------------------------------|
A|------------------------------------------|
E|------------------------------------------|

E|------------------------------------------|
B|-7h9-7-4h5-4-0h2-0--5/7-5-4-5-------------|
G|-------------------------------6-4-3h4p3--|
D|-----------------------------------------4|
A|------------------------------------------|
E|------------------------------------------|

[Primeira Parte]

 C#m               E
Se você não cuidar

Ó, cuidado!
 G#m            
Só você e o mundo inteiro
F#
   Quer ela do lado

C#m                     E
Ela sente falta de surpresa

E outras coisas
       G#m 
Que você não faz
              F#
Mas fazia um tempo atrás
           E
Cuidado rapaz!

[Refrão]

 C#m
Vai
            E
Quebra a rotina
 
E leva sua mina pra dançar
G#m                       F#
    Ao som daquela banda cover

 C#m
Vai
          E
Compra bebida de litro

E chapa com ela
G#m 
    Faz essa noite
      F#            C#m
A melhor da vida dela

            E
Quebra a rotina
 
E leva sua mina pra dançar
G#m                       F#
    Ao som daquela banda cover

 C#m
Vai
          E
Compra bebida de litro

E chapa com ela
G#m 
    Faz essa noite
      F#            
A melhor da vida dela

( C#m  E  G#m  F# )

 C#m
Vai

( E  G#m  F# )

 C#m
Se você não cuidar

Ó, cuidado!
Composição de Caio Cesar / Breno Cesar / Felipe KeF / Kaique Kef / Marcia Araújo / Nudoze
Colaboração e revisão:
  • Thiago Almeida
  • Raffael Uascar
5.442 exibições
    • ½ Tom
    • Am
    • Bbm
    • Bm
    • Cm
    • C#m
    • Dm
    • Ebm
    • Em
    • Fm
    • F#m
    • Gm
    • G#m
  • Adicionar à lista

    0 comentários

    Ver todos os comentários
    00:00 / 00:00
    Outros vídeos desta música
    Repetir Qualidade Automático
    Outros vídeos desta música
    00:00 / 00:00
    Automático

    Cifra Club Pro

    Aproveite o Cifra Club com benefícios exclusivos e sem anúncios
    Cifra Club Pro
    Aproveite o Cifra Club com benefícios exclusivos e sem anúncios
    OK