Cifra Club

Moça do Espelho

Zé Neto e Cristiano

Cifra: Principal (violão e guitarra)
exibições 113.447
Tom: B (forma dos acordes no tom de A) Capotraste na 2ª casa
[Intro] A9  E/G#  F#m  D

E|------------------------------------------|
B|-------5----5--3--2-----------5---3--2----|
G|--2h4-------------------2--4-----------2--|
D|------------------------------------------|
A|------------------------------------------|
E|------------------------------------------|

[Primeira Parte]

             A9
Com o seu batom
         E/G#
Eu escrevi uma mensagem
    F#m
No banheiro
       D
Esse boato que eu te traio
      A9
É verdadeiro
          E/G#               F#m
Tá lá escrito toda minha confissão
    D
Lê com atenção

[Pré-Refrão]

          Bm
Eu descrevi cada detalhe
              E/G#
Com que te traí
          Bm           E/G#
Só lá no fim cê vai saber
               A9   E
Com quem me envolvi

[Refrão]

                 Bm
Eu sou louco, pirado
No sorriso dela
          A/C#  D
Estou largando tudo
Pra ficar com ela
                  A9
Você não está sonhando
E não é pesadelo
                 E
Vai, não chora agora
E leia o texto inteiro

             Bm
Ela tem sua boca
Tem o seu olhar
             A/C#
Se eu te conheço bem
  D
Agora cê vai me xingar
                  A9
Seu vestido exclusivo
Ela tem um do mesmo
               E
Amor, eu te traí
Com a moça do espelho

           Bm          E/G#
Porque eu só te trocaria
             F#m  E
Por você mesmo
           Bm          E
Porque eu só te trocaria
Por você mesmo

[Solo] A9  E/G#  F#m  D 

E|------------------------------------------|
B|-------5----5--3--2-----------5---3--2----|
G|--2h4-------------------2--4-----------2--|
D|------------------------------------------|
A|------------------------------------------|
E|------------------------------------------|

[Pré-Refrão]

          Bm
Eu descrevi cada detalhe
              E/G#
Com que te traí
          Bm           E/G#
Só lá no fim cê vai saber
               A9   E
Com quem me envolvi

[Refrão]

                 Bm
Eu sou louco, pirado
No sorriso dela
          A/C#  D
Estou largando tudo
Pra ficar com ela
                  A9
Você não está sonhando
E não é pesadelo
                 E
Vai, não chora agora
E leia o texto inteiro

             Bm
Ela tem sua boca
Tem o seu olhar
             A/C#
Se eu te conheço bem
  D
Agora cê vai me xingar
                  A9
Seu vestido exclusivo
Ela tem um do mesmo
               E
Amor, eu te traí
Com a moça do espelho

           Bm          E/G#
Porque eu só te trocaria
             F#m  E
Por você mesmo
           Bm          E
Porque eu só te trocaria
Por você mesmo

[Final] A9  D  E  A9

E|------------------------------------------|
B|-------5----5--3--2-----------------------|
G|--2h4-------------------------------------|
D|------------------------------------------|
A|------------------------------------------|
E|------------------------------------------|
Acordes para:
    Composição: Tierry Colaboração e revisão:

    0 comentários

    mostrar mais comentários

    Conseguiu tocar?

    7 tocaram 5 ainda não

    Grave um vídeo tocando Moça do Espelho e mande pra gente!

    00:00 / 00:00
    outros vídeos desta música
    repetir qualidade Automático
    Outros vídeos desta música
    00:00 / 00:00
    Automático
    OK