Cifra Club

Ontem Era Eu

Zé Neto e Cristiano

Cifra: Principal (violão e guitarra)
exibições 17.062
Tom: Eb (forma dos acordes no tom de D) Capotraste na 1ª casa
[Intro] D9

E|----------------------------------------------------|
B|---------3/5~---------------------------------------|
G|-2-2-2-2--------------------------------------------|
D|----------------------------------------------------|
A|----------------------------------------------------|
E|----------------------------------------------------|

[Primeira Parte]

             D9
Se quem ama perdoa
A9
   Por que não me perdoou ainda?
Bm
   Se arrependimento matasse
     G                     A9
Eu iria precisar de outra vida

[Pré-Refrão]

   G
E tá doendo essa insegurança
A9  Bm
Eu tô perdendo a minha esperança
    G
De ter você de novo
Será que já tem outro
    A9
Te dando tudo aquilo que eu deixei faltar?

[Refrão]

  D9
E ontem era eu que te levava pra jantar
  A9
E ontem era eu com quem você ia casar
    Bm
E, pelo amor de Deus, não coloca outro em meu lugar
     G                            A9
Por tudo que vivemos, fala que a gente vai voltar

  D9
E ontem era eu quem te abraçava pra sonhar
   A9
E ontem era eu com quem você ia ficar
    Bm
E, pelo amor de Deus, não coloca outro em meu lugar
     G                          A9
Por tudo que vivemos, fala que vai me perdoar
Fala que vai me perdoar

[Solo] D9  A9  Bm  G  A9

E|----------------------------------------------------|
B|---------3/5~--5-3-5-3-5-7-3------------------------|
G|-2-2-2-2--------------------------------------------|
D|----------------------------------------------------|
A|----------------------------------------------------|
E|----------------------------------------------------|

E|----------------------------------------------------|
B|-------------3/5~--7-7/8-7-7-5-5--------------------|
G|-2-2-2-2-2-2----------------------------------------|
D|----------------------------------------------------|
A|----------------------------------------------------|
E|----------------------------------------------------|

E|----------------------------------------------------|
B|-2h3-3-3-2-3-2-0--2h3-3-3-2-3-2-0-------------------|
G|----------------------------------------------------|
D|----------------------------------------------------|
A|----------------------------------------------------|
E|----------------------------------------------------|

E|----------------------------------------------------|
B|-2h3-3-3-2-3-2-3--5-5-5-3-2--5-3-2--3-2-0-----------|
G|-------------------------------------------6-4-2-2/4|
D|----------------------------------------------------|
A|----------------------------------------------------|
E|----------------------------------------------------|

[Pré-Refrão]

   G
E tá doendo essa insegurança
A9  Bm
Eu tô perdendo a minha esperança
    G
De ter você de novo
Será que já tem outro
    A9
Te dando tudo aquilo que eu deixei faltar?

[Refrão]

  D9
E ontem era eu que te levava pra jantar
  A9
E ontem era eu com quem você ia casar
    Bm
E, pelo amor de Deus, não coloca outro em meu lugar
     G                            A9
Por tudo que vivemos, fala que a gente vai voltar

  D9
E ontem era eu quem te abraçava pra sonhar
   A9
E ontem era eu com quem você ia ficar
    Bm
E, pelo amor de Deus, não coloca outro em meu lugar
     G                          A9
Por tudo que vivemos, fala que vai me perdoar
Fala que vai me perdoar

[Final] D9

E|----------------------------------------------------|
B|---------3/5~--5-3-5-3-5-7-3--3-----2/3-------------|
G|-2-2-2-2------------------------4-2-----------------|
D|----------------------------------------------------|
A|----------------------------------------------------|
E|----------------------------------------------------|
Acordes para:
    Composição: Bruno Cesar / Rodrigo Reys Colaboração e revisão:
    • Thiago Almeida
    • Getúlio Vasconcelos

    0 comentários

    mostrar mais comentários

    Conseguiu tocar?

    7 tocaram 5 ainda não

    Grave um vídeo tocando Ontem Era Eu e mande pra gente!

    00:00 / 00:00
    outros vídeos desta música
    repetir qualidade Automático
    Outros vídeos desta música
    00:00 / 00:00
    Automático
    OK