Cifra Club

Sobrando Ausência

Zé Neto e Cristiano

Cifra: Principal (violão e guitarra)
Tom: Db (forma dos acordes no tom de Bb) Capotraste na 3ª casa
[Intro] G  D  Am7  Cm

E|---------------------/3-3--2--0---------------------|
B|-/3-3-3-3h5---3-3----------------3h5p3--------------|
G|-/4-4-4-4h5---4-4----/4-4--2--0--0------------------|
D|----------------------------------------------------|
A|----------------------------------------------------|
E|----------------------------------------------------|

E|--------------------------5-5/8----7~---------------|
B|-/3-3-3-5---7-5---1/3-5-8---------------------------|
G|-/4-4-4-4---7-5-------------------------------------|
D|----------------------------------------------------|
A|----------------------------------------------------|
E|----------------------------------------------------|

[Primeira Parte]

      G
É normal superar
          D
Só que é mais devagar
           Am   
Do jeito que você tá
         Cm7
Duvido que me amava

[Pré-Refrão]

   Am                      C
Você lá fora, curtindo as festas da cidade
  G                          D               C
E aqui dentro tá sobrando ausência de felicidade
     Cm
Iê, iê

[Refrão]

                  G                        
Cê vai virando a página, eu vou virando o litro
                 D                     
Você de boca em boca, e eu de bico em bico
               Am7                       C
Já declarei falência no meu fígado e no bolso
       D
Se quiser me encontrar, tô morando no fundo do poço

                  G                        
Cê vai virando a página, eu vou virando o litro
                 D                     
Você de boca em boca, e eu de bico em bico
               Am7                       C
Já declarei falência no meu fígado e no bolso
       D
Se quiser me encontrar, tô morando no fundo do poço

Sem você tá osso

[Solo] G  D  Am7  Cm

E|---------------------/3-3--2--0---------------------|
B|-/3-3-3-3h5---3-3----------------3h5p3--------------|
G|-/4-4-4-4h5---4-4----/4-4--2--0--0------------------|
D|----------------------------------------------------|
A|----------------------------------------------------|
E|----------------------------------------------------|

E|--------------------------5-5/8----7~---------------|
B|-/3-3-3-5---7-5---1/3-5-8---------------------------|
G|-/4-4-4-4---7-5-------------------------------------|
D|----------------------------------------------------|
A|----------------------------------------------------|
E|----------------------------------------------------|

[Primeira Parte]

      G
É normal superar
          D
Só que é mais devagar
           Am   
Do jeito que você tá
         Cm7
Duvido que me amava

[Pré-Refrão]

   Am                      C
Você lá fora, curtindo as festas da cidade
  G                          D               C
E aqui dentro tá sobrando ausência de felicidade
     Cm
Iê, iê

[Refrão]

                  G                        
Cê vai virando a página, eu vou virando o litro
                 D                     
Você de boca em boca, e eu de bico em bico
               Am7                       C
Já declarei falência no meu fígado e no bolso
       D
Se quiser me encontrar, tô morando no fundo do poço

                  G                        
Cê vai virando a página, eu vou virando o litro
                 D                     
Você de boca em boca, e eu de bico em bico
               Am7                       C
Já declarei falência no meu fígado e no bolso
       D
Se quiser me encontrar, tô morando no fundo do poço

Sem você tá osso

[Final] G  D  Am  C  G

E|---------------------/3-3--2--0---------------------|
B|-/3-3-3-3h5---3-3----------------3h5p3--------------|
G|-/4-4-4-4h5---4-4----/4-4--2--0--0------------------|
D|----------------------------------------------------|
A|----------------------------------------------------|
E|----------------------------------------------------|

E|--------------------------5-5/8----7~---------------|
B|-/3-3-3-5---7-5---1/3-5-8---------------------------|
G|-/4-4-4-4---7-5-------------------------------------|
D|----------------------------------------------------|
A|----------------------------------------------------|
E|----------------------------------------------------|
exibições 21.817
Acordes para:

    0 comentários

    mostrar mais comentários

    Conseguiu tocar?

    7 tocaram 2 ainda não

    Grave um vídeo tocando Sobrando Ausência e mande pra gente!

    00:00 / 00:00
    outros vídeos desta música
    repetir qualidade Automático
    Outros vídeos desta música
    00:00 / 00:00
    Automático
    OK