Cifra Club

Whisky e Gelo

Zé Neto e Cristiano

Cifra: Principal (violão e guitarra)
exibições 20.685
Tom: E (forma dos acordes no tom de D) Capotraste na 2ª casa
[Intro] F#m  E  D9 

E|----------------------------------------------------|
B|----------------------------------------------------|
G|-------2--2h4-2-1-----1/2---------------------------|
D|-2/4----------------2-----4~------------------------|
A|----------------------------------------------------|
E|----------------------------------------------------|

[Primeira Parte]

 A          
Felicidade é um caminho simples
D9
 Mas não tem placa, é fácil se perder
F#m         E
 Você errou,  errou comigo
D9
 Eu não esperava isso

[Pré-Refrão]

F#m
 Foi covardia
E
 Da sua parte
D9
 Doeu saber
             
Que não me amava de verdade

[Refrão]

 A
Se eu te ligar, não atende, é desespero
D9
É culpa desse copo com Whisky e gelo
F#m          E
E amanhã eu volto a te odiar
     D9
Mas basta eu beber que eu volto a te amar

 A
Se eu te ligar, não atende, é desespero
D9
É culpa desse copo com Whisky e gelo
F#m          E
E amanhã eu volto a te odiar
     D9
Mas basta eu beber que eu volto a te amar

[Solo] A  D9  F#m  E  D9

E|----------------------------------------------------|
B|------------------------------5---------------------|
G|-/6-6-4-4-2-2-----2-2-2-4-4/6---2h4~p2--------------|
D|--------------2h4-----------------------------------|
A|----------------------------------------------------|
E|----------------------------------------------------|

E|----------------------------------------------------|
B|-----------------3h5p3-3-3p2------------------------|
G|-/6-6-4-4-2-2-----------------4/5/4p2--2h4-2-x-2----|
D|--------------4------------------------2h4-2-x-2----|
A|----------------------------------------------------|
E|----------------------------------------------------|

E|----------------------------------------------------|
B|-5/7-5---------5-------------------------5/7-5~-----|
G|-------4p2-4~--2------2h4p2---2-4h6p4p2-------------|
D|------------------2-4-------4-----------------------|
A|----------------------------------------------------|
E|----------------------------------------------------|

E|----------------------------------------------------|
B|---5/7/5--------------------------------------------|
G|-4-------4/2----------------------------------------|
D|----------------------------------------------------|
A|----------------------------------------------------|
E|----------------------------------------------------|

[Pré-Refrão]

F#m
 Foi covardia
E
 Da sua parte
D9
 Doeu saber
             
Que não me amava de verdade

[Refrão]

 A
Se eu te ligar, não atende, é desespero
D9
É culpa desse copo com Whisky e gelo
F#m          E
E amanhã eu volto a te odiar
     D9
Mas basta eu beber que eu volto a te amar

 A
Se eu te ligar, não atende, é desespero
D9
É culpa desse copo com Whisky e gelo
F#m          E
E amanhã eu volto a te odiar
     D9
Mas basta eu beber que eu volto a te amar

( A  D9 )

[Final] F#m  E  D9 

E|----------------------------------------------------|
B|----------------------------------------------------|
G|-------2--2h4-2-1-----1/2---------------------------|
D|-2/4----------------2-----4~------------------------|
A|----------------------------------------------------|
E|----------------------------------------------------|
Acordes para:
    Composição: Philipe Pancadinha / Victor Hugo Colaboração e revisão:
    • Getúlio Vasconcelos

    0 comentários

    mostrar mais comentários

    Conseguiu tocar?

    4 tocaram 3 ainda não

    Grave um vídeo tocando Whisky e Gelo e mande pra gente!

    00:00 / 00:00
    outros vídeos desta música
    repetir qualidade Automático
    Outros vídeos desta música
    00:00 / 00:00
    Automático
    OK