Cifra Club

Jardim Das Acácias

Zé Ramalho

Cifra: Principal (violão e guitarra)
Tom: G
 
Intro: C D Em

E|--7/12---10/12\7---5-5/7------10/12/7\12-12/15-12\10----7h5-5/7-----------|
B|--------------------------------------------------------------------------|
G|--------------------------------------------------------------------------|
D|--------------------------------------------------------------------------|
A|--------------------------------------------------------------------------|
E|--------------------------------------------------------------------------|

E|------5/7-5---5/7-5---5/7-5--------5/7-5---5/7-5---5/7-5------------|
B|--8-5------8-------8-------8-5-8-5------8-------8-------8-3-3/5-----|
G|--------------------------------------------------------------------|
D|--------------------------------------------------------------------|
A|--------------------------------------------------------------------|
E|--------------------------------------------------------------------|

      C       D       Em
Nada vejo por esta cidade 
         C             D       Em
Que não passe de um lugar comum   
       C      D         Em
Mas o solo é de fertilidade  
       C          D         Em
No jardim dos animais em jejum
     C           D      Em
Esperando alvorecer de novo
   
     G           D       Am
Esperando anoitecer pra ver
      G         D       Am
A clareza da oitava estrela 
     G            D    Am
Esperando a madrugada vir
          C           D      Em
E eu não posso com a mão retê-la 
         G             D     Am
E eu na passo de um rapaz comum
        G        D       Am
Como e corro trafego na rua
        G       D        Am
Fui graveto no bico do anum
         C            D      Em
Vez em quando sou dragão da lua 
      C       D               Em
Momentânea aliení..........gena
      C       D           Em
A formiga em viva carne crua 
     C             D       Em
Perecendo e naufragando o mar
                            C        D        Em
Uê  oh.......oh.......oh..... naufragando no mar

Solo: C D Em

E|------5/7-5---5/7-5---5/7-5--------5/7-5---5/7-5---5/7-5------------|
B|--8-5------8-------8-------8-5-8-5------8-------8-------8-3-3/5-----|
G|--------------------------------------------------------------------|
D|--------------------------------------------------------------------|
A|--------------------------------------------------------------------|
E|--------------------------------------------------------------------|

       C        D          Em
E a papoula na terra do fogo 
        C      D          Em
Sanguessuga sedenta de calor
      C            D     Em
Desemboco o canto nesse jogo 
        C           D        Em
Como a cobra se contorce de dor
     C             D    Em
Renegando a honra da família
     G          D       Am
Venerando todo ser criador
     G             D      Am
No avesso de um espelho claro
       G          D       Am
No chicote da barriga do boi
      C           D    Em
No mugido de uma vaca mansa 
     C         D        Em
Foragido como Judas em paz
      C         D      Em
A pessoa que você mais ama 
       C            D       Em
No planeta vendo o mundo girar
                             C         D       Em
Uê  oh.......oh.......oh..... vendo o mundo girar.



Solo (2x): C D Em

E|------5/7-5---5/7-5---5/7-5--------5/7-5---5/7-5---5/7-5------------|
B|--8-5------8-------8-------8-5-8-5------8-------8-------8-3-3/5-----|
G|--------------------------------------------------------------------|
D|--------------------------------------------------------------------|
A|--------------------------------------------------------------------|
E|--------------------------------------------------------------------|

Final: C D Em

E|------5/7-5---5/7-5---5/7-5--------5/7-5---5/7-5---5/7-5------------|
B|--8-5------8-------8-------8-5-8-5------8-------8-------8-7-7/8-----|
G|--------------------------------------------------------------------|
D|--------------------------------------------------------------------|
A|--------------------------------------------------------------------|
E|--------------------------------------------------------------------|

(C D Em)
ah ah ah.....
exibições 232.205
Acordes para:
    Colaboração e revisão:
    • Marcos Rogerio

    0 comentários

    mostrar mais comentários

    Conseguiu tocar?

    23 tocaram 1 ainda não

    Grave um vídeo tocando Jardim Das Acácias e mande pra gente!

    00:00 / 00:00
    outros vídeos desta música
    repetir qualidade Automático
    Outros vídeos desta música
    00:00 / 00:00
    Automático
    OK