Vermelhos

Zé Ramalho

Composição de: Zé Ramalho
tom: G
(intro) G   Am   Bm   Am

    G                      Am                             Bm
E|----10-12-10-----------------|-10-12-10-------------------|
B|-12---------12-10-------10---|-----------12-10---------12-|
G|-------------------12-9------|-------------------12-9-----|
D|-----------------------------|----------------------------|
A|-----------------------------|----------------------------|
E|-----------------------------|----------------------------|
                         Am                         G
E|-10-12-10--------------------|-10-12-10-------------------|
B|----------12-10-------10-----|---------12-10--------------|
G|----------------12-9---------|--------------12-9-12-------|
D|-----------------------------|----------------------------|
A|-----------------------------|----------------------------|
E|-----------------------------|----------------------------|

G                Am
Quero o mel das abelhas no jardim
Bm               G    G  F#m
Um tapete de lençóis
Em               Am
Muita névoa na moringa
Bm                 Em       E7
Muitos pássaros vermelhos
                      Am
Que é pra quando você despertar
C                     F     Am
Que é pra quando você me olhar
G                 C               C   G/B
Nosso tempo de loucuras já passou
Am                   D     Am      D  D7
Pelos saeculus saeculorum amém
G             Am
Na valeta esquálido barquinho
Bm             G       G  F#m
Ametista fulgural
Em             Am
Descoberta tão fria que acordou
Bm               Em      E7
Repuxando meus cabelos
                Am
Duas sombras vermelhas no lençol
C                F   Am
Quando o dia clareou
G                  C              C  G/B
Nosso tempo de loucuras já passou
Am                   D     Am    D   Am   D D7   G
Pelos saeculus saeculorum amém...   Amém...    Amém!

(intro)
G             Am
Na valeta esquálido barquinho
Bm             G   G  F#m
Ametista fulgural
Em             Am
Descoberta tão fria que acordou
Bm               Em      E7
Repuxando meus cabelos
                Am
Duas sombras vermelhas no lençol
C                F   Am
Quando o dia clareou
G                  C              C  G/B
Nosso tempo de loucuras já passou
Am                   D     Am    D   Am   D D7   G
Pelos saeculus saeculorum amém...   Amém...    Amém!

(intro)
Página 1 / 1

Letras e título
Acordes e artista

resetar configurações
OK