Cifra Club

Teus Olhos

Zefirina Bomba

Cifra: Principal (violão e guitarra)
tom: Db
na introdução é isso:

|--------------------------------------------------------------------------
|--------------------------------------------------------------------------
|-----------------------------------------------------------------8-88-888-
|-3-33-333----------------------------3-33-333-----------------------------
|-1-11-111-3-33-333-6-66-666-6-66-666--1-11-111-3-33-333-6-66-666-6-66-666-
|----------1-11-111-4-44-444-4-44-444-----------1-11-111-4-44-444----------

ai fica nisso a música toda:

|-------------------------------------
|-------------------------------------
|-------------------------------------
|-3-33-333----------------------------
|-1-11-111-3-33-333-6-66-666-6-66-666-
|----------1-11-111-4-44-444-4-44-444-

não tenho certeza sobre a introdução, mas creio que seja isso :)

...
..
.
00:00 / 00:00
Outros vídeos desta música
Repetir
Outros vídeos desta música
Compositor não encontrado.
Colaboração e revisão:
  • fernando athayde
1.226 exibições
    • ½ Tom
    • A
    • Bb
    • B
    • C
    • Db
    • D
    • Eb
    • E
    • F
    • F#
    • G
    • Ab
  • Adicionar à lista

    0 comentários

    Ver todos os comentários

    Conseguiu tocar?

    0 Tocaram 0 Ainda não

    Grave um vídeo tocando Teus Olhos e nos envie!

    00:00 / 00:00

    Cifra Club Pro

    Aproveite o Cifra Club com benefícios exclusivos e sem anúncios
    Cifra Club Pro
    Aproveite o Cifra Club com benefícios exclusivos e sem anúncios
    OK