Cifra Club

Aprenda

Tico Tico No Fubá

Zequinha de Abreu

Cifra: Principal (violão e guitarra)
Tom: D
E|-12-10-8-7----------8-10--12---12------------|
B|-----------10--9-12-------------9----5-4-5---|
G|--------------------------------9------------|
D|---------------------------------------------|
A|-----------------10-9--8---7-----------------|
E|--------------------------------0------------|

E|------5--------------4---0---0---------------|
B|--6-5-5---5-4-5--6-5-5-----------------------|
G|------5--------------7-----8-----------------|
D|---------------------------------------------|
A|--0-----3------------------------------------|
E|-----------------0-----7---------------------|

E|---0-10p7---0--------------------------------|
B|-6--------9----------------10-9-8------------|
G|-4------------7-6--5-------------------------|
D|-6-------------------7-7---------------------|
A|---------------------7-7---------------------|
E|-0-----------------5-----8-------------------|
 
E|-------10-------8-------------8------8-------|
B|----10-------10---10-------10-----10---12-11-|
G|-10-------10---------10--9------9------------|
D|--0------------------------------------------|
A|---------------------------------------------|
E|-------------------------0-------------------|
 
E|-7-----------7-------12-12-------------------|
B|-----------7---10--9-----9-------------------|
G|---------8---------9-----9-------------------|
D|-------9---------------------2-1-2-----------|
A|-----9---------------------------------------|
E|---7---------------0-------0-----------------|
 
E|-----0--------------0------------------------|
B|-----1--------------3------------------------|
G|-----2--------------1------------------------|
D|-3-2-----2-1-2--3-2-----2-1-2----------------|
A|-0-----3--------------2----------------------|
E|----------------0----------------------------|

E|---------------------------------------------|
B|-----3p0-------------------------------------|
G|-1-------1----------2-2---2-1-0--------------|
D|-3-2-------2p0------2-3----------------------|
A|---------------4--3-----3--------------------|
E|-0-------------------------------------------|
 
E|---------------------------------------------|
B|------3---(3)-1p0---------1---(1)-1-0--------|
G|----2------2------2-----2------2------3------|
D|-3------0-(0)--------2------2-(2)------------|
A|---------------------------------------------|
E|-1-------------------0-----------------------|
 
E|---------0------------5----------------------|
B|-0-----0---3-1-0------5--5--4-5--------------|
G|-----1------------2---5----------------------|
D|---2-----------------------------------------|
A|------------------0---0----------------------|
E|-0------------------0------------------------|
 
E|-----5-----0---5-----4-(4)-----2-------------|
B|-----5---2---------2---------2---------------|
G|-2---5-2---------2---------2-----------------|
D|---------------------------------------------|
A|-0---0---------0-----------------------------|
E|---0--------------------0--------------------|

E|-2-----0-(0)-----2--2-----0-(0)-----2--------|
B|-----2---------2--------2---------2----------|
G|---2---------2--------2---------2------------|
D|---------------------------------------------|
A|-0------------------0------------------------|
E|----------0------------------0---------------|

E|-2-----0-(0)---0-2--5-----4-(4)---0-2--------|
B|-----3-------3----------3-------3------------|
G|---4------------------4----------------------|
D|---------------------------------------------|
A|-2------------------2------------------------|
E|----------0------------------0---------------|
 
E|-2-----0-(0)---0-2--5-----4-(4)---0-2--------|
B|-----3-------3----------3-------3------------|
G|---4------------------4----------------------|
D|-----------------------------0---------------|
A|-2------------------2------------------------|
E|----------0----------------------------------|
 
E|-2-----0-(0)-----0--5-----4-(4)-----2--------|
B|-----2---------2--------2---------2----------|
G|---2---------2--------2---------2------------|
D|---------------------------------------------|
A|-4------------------0------------------------|
E|----------0------------------0---------------|

E|-2-----0-(0)-----0--2-------2----------------|
B|-----2---------2------5-2-----5-2------------|
G|---2---------2------------3-------3----------|
D|---------------------------------------------|
A|-0--------------------------4----------------|
E|----------0---------2------------------------|
 
E|----------------------0----------------------|
B|-------2--3-----3-2-3------9-10-12-----------|
G|-4-3-4------------------11-------------------|
D|----------------0----------------------------|
A|-2-------(2)---------------------------------|
E|-------------------------0-------------------|
 
E|-9-10-11-12-14-12-10-9-----------------------|
B|------------------------12-10-9------------0-|
G|--------------------------------11-9---------|
D|-------------------------------------12-11---|
A|-0-------------------------------------------|
E|-------------------------0-------------------|

E|-----5-----0-------5-------------------------|
B|-----2---2---------2-5-4-5-------------------|
G|-2---2-2-------2---2-------------------------|
D|---2-------------2---------------------------|
A|-0---0---------0---0-------------------------|
E|---------------------------------------------|

E|-----5-------------------0-3-4---------------|
B|-----2-0---------------1---------------------|
G|-2---2---2-1---0-----0-----------------------|
D|---2---------------2-------------------------|
A|-0---0-----------3---------------------------|
E|---------------------------------------------|
 
E|-5-1----------------------1-3----------------|
B|---0---0--------------0-3--------------------|
G|---0-----2-1--0-----0------------------------|
D|-0----------------3--------------------------|
A|----------------2----------------------------|
E|-----3---------------------------------------|

E|-5-----8-8-8----8p7-7-7-7p5-5-5--------------|
B|---5----------^-8-------8--------------------|
G|---5----------^-9-------9--------------------|
D|--------------^10----------------------------|
A|-3-------------------------------------------|
E|-----0------------------8--------------------|
 
E|-5-1---7-7-7--7p5-5-5-5p3-3-3----------------|
B|---0-----------------------------------------|
G|---0-----------------------------------------|
D|-0------------0-------3----------------------|
A|---------------------------------------------|
E|-----3---------------------------------------|

E|-5p3-0----------------------0-3-4------------|
B|-------1------------------1------------------|
G|---------0--------------0--------------------|
D|-----------2----------2----------------------|
A|-------------3p0----3------------------------|
E|-0----------------3--------------------------|

E|-5-1----------------------1-3--5-------------|
B|---0---0--------------0-3--------5-----------|
G|---0-----2-1--0-----0------------5-----------|
D|-0----------------3--------------------------|
A|----------------2--------------3-------------|
E|-----3---------------------------------------|

E|---------------------------------------------|
B|---1-0----------0-3-1-0-1--------------------|
G|-------3--2-1-2------------------------------|
D|---------------------------------------------|
A|---------------------------------------------|
E|-0--------1-------2--------------------------|

E|-0-----0-3-2-1-0-----------------------------|
B|-----1------------3-1-0----------------------|
G|---0--------------------2-0------------------|
D|------------------0---------3-2-0------------|
A|---------------------------------------------|
E|-3------------------------3------------------|

E|------------------0-------------------------| |
B|-----1-0----------3-5-4-5-------------------| |
G|-----0---2-1------1-------------------------| |
D|-----2------------2-------------------------| |
A|-3---3---------3--2-------------------------| |
E|---3--------------0-------------------------| |



Colaboração e revisão:
  • Lucas Kappaun
  • Jorge Umemaru
117.504 exibições
    • ½ Tom
    • A
    • Bb
    • B
    • C
    • Db
    • D
    • Eb
    • E
    • F
    • F#
    • G
    • Ab
  • Adicionar à lista

    0 comentários

    Mostrar mais comentários

    Conseguiu tocar?

    3 Tocaram 8 Ainda não

    Grave um vídeo tocando Tico Tico No Fubá e mande pra gente!

    00:00 / 00:00
    outros vídeos desta música
    repetir qualidade Automático
    Outros vídeos desta música
    00:00 / 00:00
    Automático

    Cifra Club Pro

    Aproveite o Cifra Club com benefícios exclusivos e sem anúncios
    7 dias grátis
    Cifra Club Pro
    Aproveite o Cifra Club com benefícios exclusivos e sem anúncios
    7 dias grátis
    OK