Cifra Club

Dou a Vida Por Um Beijo

Zezé Di Camargo e Luciano

Cifra: Principal
exibições 789.460
Tom: G# (com acordes na forma de G) Capotraste na 1ª casa
Intro:

   G             Am          C            G
E|----------------------------------------------------------------------------|
B|----------------------------------------------------------------------------|
G|----------------------------------------------------------------------------|
D|-12-12-12-12h14-12--14-14-14-14h16-14--14-14-14-14/16-14--12-12-12-12h14-12-|
A|----------------------------------------------------------------------------|
E|----------------------------------------------------------------------------|

                     Am
E|---22-20-19-----------------------------------------------------------------|
B|------------22-20-22-20-19---19---------------------------------------------|
G|---------------------------21----21-19-17-----------------------------------|
D|------------------------------------------------------------12h14-----------|
A|----------------------------------------------------12h14----------12-------|
E|----------------------------------------------------------------------------|


 Am                  G
Difícil demais, te amar assim
 Am                    G
Minha timidez tem que ter um fim
  Am                   G
Preciso perder o medo de falar
  Am                      G
Pra não te perder vou me declarar

 G                            Am
Morro de saudade quando você some
                              C
Dá uma vontade de gritar seu nome
                             G
Quase uma loucura, uma obsessão

  G                              Am
Pra me sentir feliz só tem uma saída
                                  C
Fazer você ficar de vez na minha vida
                               D
Perto dos meus olhos e do coração

G     D  Em     C         G
Eu te amo, eu preciso te dizer
      D/F#      Am         C    D
Todo dia, toda noite o meu sonho é você
G     D  Em      C               G
Eu te amo, é paixão que não tem fim
  D/F#              Am        C     D      G
Dou a vida por um beijo quero ter você pra mim

Intro:

   G             Am          C            G
E|------------------------------------------------------------------------------|
B|------------------------------------------------------------------------------|
G|------------------------------------------------------------------------------|
D|-12-12-12-12h14-12--14-14-14-14h16-14--14-14-14-14/16-14--12-12-12-12h14-12---|
A|------------------------------------------------------------------------------|
E|------------------------------------------------------------------------------|

                                 Am
E|---22-20-19-------------------------------------------------------------------|
B|------------22-20-22-20-19---19-----------------------------------------------|
G|---------------------------21----21-19-17-------------------------------------|
D|------------------------------------------------------------------------------|
A|------------------------------------------------------------------------------|
E|------------------------------------------------------------------------------|



 Am                  G
Difícil demais, te amar assim
 Am                    G
Minha timidez tem que ter um fim
  Am                   G
Preciso perder o medo de falar
  Am                      G
Pra não te perder vou me declarar

 G                            Am
Morro de saudade quando você some
                              C
Dá uma vontade de gritar seu nome
                             G
Quase uma loucura, uma obsessão

  G                              Am
Pra me sentir feliz só tem uma saída
                                  C
Fazer você ficar de vez na minha vida
                               D
Perto dos meus olhos e do coração

G     D  Em     C         G
Eu te amo, eu preciso te dizer
      D/F#      Am         C    D
Todo dia, toda noite o meu sonho é você
G     D  Em      C               G
Eu te amo, é paixão que não tem fim
  D/F#              Am        C     D      G
Dou a vida por um beijo quero ter você pra mim

E|---11-9-8-------------------------------------------------|
B|----------11-9-11-9-8-------------------------------------|
G|----------------------10-8--------------------------------|
D|----------------------------11-9-8------------------------|
A|----------------------------------------------------------|
E|----------------------------------------------------------|
Acordes para:
    Colaboração e revisão:
    • Álvaro Filho
    • Escola Novais
    • jose silva

    0 comentários

      mostrar mais comentários

      Conseguiu tocar?

      30tocaram1ainda não

      Grave um vídeo tocando Dou a Vida Por Um Beijo e mande pra gente!

      00:00 / 00:00
      outros vídeos desta música
      repetirqualidadeautomática
      Outro vídeos desta música
        00:00 / 00:00
        automática
        OK