Enviar cifraEntrar

Dou A Vida Por Um Beijo

Zezé Di Camargo e Luciano

Cifra: Principal
exibições 681.178
Tom: G#
(intro)

   Ab             Bbm          C#            Ab
E|------------------------------------------------------|
B|------------------------------------------------------|
G|------------------------------------------------------|
D|---1-1-1-1h3-1--3-3-3-3h5-3--3-3-3-3/5-3--1-1-1-1h3-1-|
A|------------------------------------------------------|
E|------------------------------------------------------|


                                 Bbm
 E|---11-9-8---------------------------------------------|
B|----------11-9-11-9-8---8-----------------------------|
G|----------------------10---10-8-6---------------------|
D|------------------------------------------------------|
A|------------------------------------------------------|
E|------------------------------------------------------|


(riff)

E|-------------|
B|-------------|
G|-------------|
D|------1h3----|
A|--1h3-----1--|
E|-------------|


Bbm                  Ab (riff)
Difícil demais, te amar assim
Bbm                    Ab (riff)
Minha timidez tem que ter um fim
Bbm                    Ab (riff)
Preciso perder o medo de falar
Bbm                       Ab
Pra não te perder vou me declarar

Ab                             Bbm
Morro de saudade quando você some
                               C#
Dá uma vontade de gritar seu nome
                             Ab
Quase uma loucura, uma obsessão

Ab                                Bbm
Pra me sentir feliz só tem uma saída
                                    C#
Fazer você ficar de vez na minha vida
                                Eb
Perto dos meus olhos e do coração....

Ab     Eb  Fm     C#         Ab
Eu te amo, eu preciso te dizer
      Eb/G      Bbm          C#   Eb
Todo dia, toda noite o meu sonho é você
Ab     Eb  Fm      C#               Ab
Eu te amo, é paixão que não tem fim
  Eb/G              Bbm         C#    Eb      Ab
Dou a vida por um beijo quero ter você pra mim...

(intro)

(repete tudo)

                                    Bbm
E|---11-9-8-------------------------------------------------|
B|----------11-9-11-9-8-------------------------------------|
G|----------------------10-8--------------------------------|
D|----------------------------11-9-8------------------------|
A|----------------------------------------------------------|
E|----------------------------------------------------------|

  • 1
  • 2
  • 3
  • 4
  • 5
  • 6
  • 7
  • 8
  • 9
  • 10
  • 11
  • 12
    Acordes para:
      Composição: Cecílio Nena / Lalo Prado / Antônio LuizColaboração e revisão:
      • alvaro_guitar27
      • PIERRY NOVAIS
      • reitte

      0 comentários

        mostrar mais comentários

        Conseguiu tocar?

        25tocaram1ainda não

        Grave um vídeo tocando Dou A Vida Por Um Beijo e mande pra gente!

        00:00 / 00:00
        outros vídeos desta música
        repetirqualidadeautomática
        • automática
        Outro vídeos desta música
          00:00 / 00:00
          automática
          • automática
          Acordes para:violão e guitarra
          dificuldadeexibiçõescontribuições
          1 versão de Guitar Proformatodownloadscontribuição
          1 versão de Partiturasformatodownloadscontribuição
          fecharplay/pause subir/descer velocidade
            acordes
            fechar
            OK
            Feedback