Cifra Club

Eu Te Amo (And I Love Her)

Zezé Di Camargo e Luciano

Cifra: Principal
exibições 111.451
Tom: C
[Intro] G  Am
        G  Am
        G  Am

 Am           Em
Foi tanto que eu te amei
Am       Em
E não sabia
Am           Em
Que pouco a pouco eu
C        D7
Eu te perdia
      G
Eu te amo
Am        Em
E aquele louco amor
Am      Em
Inesquecível
Am       Em      C
Tirar do coração
        D7
É impossível
       G
Eu te amo
Em         D7
Te amei demais
Em       Bm
Enlouqueci
  Em      Bm
Brigas banais
     D7
Te perdi
Am       Em
O tempo já passou
Am           Em
E eu não consigo
Am         Em
Calar meu coração
 C         D7
E às vezes digo
        G
Eu te amo
      
A#m      Fm
O tempo já passou
A#m          Fm
E eu não consigo
A#m        Fm
Calar meu coração
 C#m        D#m
E às vezes digo
       G#  A#m
Eu te amo
       G#   A#m F
Eu te amo

[Solo]
E|---------------------------|
B|-----------3--1--4---------|
G|-----0--1------------------|
D|--3------------------------|
A|---------------------------|
E|---------------------------|

E|---------------------------|
B|-----------3--1------------|
G|-----0--1------------------|
D|--3------------------------|
A|---------------------------|
E|---------------------------|

E|---------------------------|
B|-----------3--1--4---------|
G|-----0--1------------------|
D|--3------------------------|
A|---------------------------|
E|---------------------------|

E|---------------------------------|
B|--4--1---------------------------|
G|--------1--0----------------0----|
D|--------------3------------------|
A|-------------------3--1--3-------|
E|---------------------------------|
Acordes para:
    Colaboração e revisão:

    0 comentários

      mostrar mais comentários

      Conseguiu tocar?

      5tocaram0ainda não

      Grave um vídeo tocando Eu Te Amo (And I Love Her) e mande pra gente!

      00:00 / 00:00
      outros vídeos desta música
      repetirqualidadeautomática
      Outro vídeos desta música
        00:00 / 00:00
        automática
        OK