Cifra Club

Aprenda

Você Vai Ver

Zezé Di Camargo e Luciano

Cifra: Principal (violão e guitarra)
Já pensou em usar uma coleção de roupas do Cifra Club? Responda as perguntas abaixo e nos ajude nessa missão! →
tom: F
[Intro] F  C  Dm  A  Bb 
        F  C  F  C7

E|----------------8-------------------------|
B|-10-11-10-8-6-8---8-5-6-------------------|
G|------------------------------------------|
D|------------------------------------------|
A|------------------------------------------|
E|------------------------------------------|

E|-------------5----------------------------|
B|-6-8-6-5---5---5--------------------------|
G|---------7-------6-7----------------------|
D|------------------------------------------|
A|------------------------------------------|
E|------------------------------------------|

E|------------------------------------------|
B|------------------------------------------|
G|---------------------10-------------------|
D|---8-12-10-8-10-9/10----------------------|
A|-8----------------------------------------|
E|------------------------------------------|

E|------------------------------------------|
B|------------------------------------------|
G|-----------9-10-10/12-10------------------|
D|-8-8-8-7-8--------------------------------|
A|------------------------------------------|
E|------------------------------------------|

E|-8-8-8-6-5---6-5--------------------------|
B|-----------8-----8-6-5---8-6-5------------|
G|-----------------------7-------7-5-3-2----|
D|------------------------------------------|
A|------------------------------------------|
E|------------------------------------------|

[Primeira Parte]

F                  C             Dm   Dm/C  Bb
  Você pode encontrar muitos amores
                    Am              Gm   Gm/F  C/E
Mas ninguém vai te dar o que eu te dei
              A7           Dm
Podem até te dar algum prazer
                 Bb           F
Mas posso até jurar você vai ver
                     C               F  C7   
Que ninguém vai te amar como eu te amei

[Segunda Parte]

F               C              Dm   Dm/C  Bb
  Você pode provar milhões de beijos
                  Am             Gm  Gm/F  C/E
Mas sei que você vai lembrar de mim
                   A7          Dm
Pois sempre que um outro te tocar
              Bb           F
Na hora você pode se entregar
                     C               F  C7
Mas não vai me esquecer nem mesmo assim

[Refrão]

          F             C          Dm
Eu vou ficar, guardado no seu coração
           F7      Bb           
Na noite fria solidão
         F/A            C
Saudade vai chamar meu nome (meu nome)
          F               C           Dm
Eu vou ficar, num verso triste de paixão
         F7         Bb            F/A        C
Em cada sonho de verão, no toque do seu telefone
         
Você vai ver

[Solo] F  C  Dm  A  Bb 
       F  C  F  C7

E|----------------8-------------------------|
B|-10-11-10-8-6-8---8-5-6-------------------|
G|------------------------------------------|
D|------------------------------------------|
A|------------------------------------------|
E|------------------------------------------|

E|-------------5----------------------------|
B|-6-8-6-5---5---5--------------------------|
G|---------7-------6-7----------------------|
D|------------------------------------------|
A|------------------------------------------|
E|------------------------------------------|

E|------------------------------------------|
B|------------------------------------------|
G|---------------------10-------------------|
D|---8-12-10-8-10-9/10----------------------|
A|-8----------------------------------------|
E|------------------------------------------|

E|------------------------------------------|
B|------------------------------------------|
G|-----------9-10-10/12-10------------------|
D|-8-8-8-7-8--------------------------------|
A|------------------------------------------|
E|------------------------------------------|

E|-8-8-8-6-5---6-5--------------------------|
B|-----------8-----8-6-5---8-6-5------------|
G|-----------------------7-------7-5-3-2----|
D|------------------------------------------|
A|------------------------------------------|
E|------------------------------------------|

[Segunda Parte]

F               C              Dm   Dm/C  Bb
  Você pode provar milhões de beijos
                  Am             Gm  Gm/F  C/E
Mas sei que você vai lembrar de mim
                   A7          Dm
Pois sempre que um outro te tocar
              Bb           F
Na hora você pode se entregar
                     C               F  C7
Mas não vai me esquecer nem mesmo assim

[Refrão]

          F             C          Dm
Eu vou ficar, guardado no seu coração
           F7      Bb           
Na noite fria solidão
         F/A            C
Saudade vai chamar meu nome (meu nome)
          F               C           Dm
Eu vou ficar, num verso triste de paixão
         F7         Bb            F/A        C
Em cada sonho de verão, no toque do seu telefone
         
Você vai ver
        
          F             C          Dm
Eu vou ficar, guardado no seu coração
           F7      Bb           
Na noite fria solidão
         F/A            C
Saudade vai chamar meu nome (meu nome)
          F               C           Dm
Eu vou ficar, num verso triste de paixão
         F7         Bb            F/A        C
Em cada sonho de verão, no toque do seu telefone
         
Você vai ver

[Final] Bb  F  C  F
        Bb  F  C  F
Composição de Carlos Colla / Elias Muniz
882.983 exibições
    • ½ Tom
    • A
    • Bb
    • B
    • C
    • Db
    • D
    • Eb
    • E
    • F
    • F#
    • G
    • Ab
  • Adicionar à lista

    0 comentários

    Ver todos os comentários
    00:00 / 00:00
    Outros vídeos desta música
    Repetir Qualidade Automático
    Outros vídeos desta música
    00:00 / 00:00
    Automático

    Cifra Club Pro

    Aproveite o Cifra Club com benefícios exclusivos e sem anúncios
    Cifra Club Pro
    Aproveite o Cifra Club com benefícios exclusivos e sem anúncios
    OK