Everything

Zilch

(c) 1997 Gotee Records
Toonman (*)


VERSE:                                                         (2x)
G-0---0-2-------------------------0---0-2-----------------5-5-4-2-|
D---------0---0-2-3---3-5-----------------0---0-2-3---3-----------|
A-------------------------3---3-----------------------------------|

                                                               (2x)
G-0---0---------------------------0---0-------------------5-5-4-2-|
D---------0---0---3---3-------------------0---0---3---3-----------|
A-------------------------3-3-2-0---------------------------------|

G-------------3-------3-------------------------------------------|
D-1---1---1-1---1-1-1---1-1-0-1-2-3---3-3-3-3-3-3-3-1---0---3-----|


CHORUS:                                                        (2x)
D---0-3-0---0-0-0---5-3-0---0-0-0---0-3-0---0-0-0-5---------------|
A-3---------------3---------------3-------------------------------|

(Repeat Verse)
(Repeat Chorus 2x)
(Repeat Ist and 3rd Section of Verse)
(Repeat Chorus 3x)
Página 1 / 1

Letras e título
Acordes e artista

resetar configurações
OK