Pétalas

Alceu Valença

 Alceu Valença
Tom: G
		
Intro:


E|----------------------------|
B|3-15-13-13-13-12-12-12-10-10|
G|----------------------------|
D|----------------------------|
A|----------------------------|
E|----------------------------|



E|----------------------------|
B|-8-8-8--7-5-0-3-------------|
G|----------------------------|
D|----------------------------|
A|----------------------------|
E|----------------------------| (2x)



E|----------------------------|
B|-5-3------------------------|
G|----555555-4-2-5-4----------|
D|----------------------------|
A|----------------------------|
E|----------------------------|



E|----------------------------|
B|-5-3------------------------|
G|-----555555-4-2-0-----------|
D|----------------------------|
A|----------------------------|
E|----------------------------|


         G
As borboletas voam sobre o meu jardim
           Em7                          G
São cores vivas, pousam sobre as "onze horas"
           Em7                   G
Nas rosas claras, violetas e jasmins
      G
Um beija-flor traindo a rosa amarela
      Em7                   G
Beijou a bela margarida infiel
             Em7
Papoula e dália estão cravadas de ciúmes
                                 G
E o beija-flor beijando flores a granel

G
Pétalas, asas amareladas

Pétalas, espinho seco

Folha, flor, lagarta
  Em7
Pétalas
                            C
As flores voam e voltam na outra estação
                           D         G
Só serei flor quando tu flores no verão
31.415 exibições

Comentários 0

Composição: Alceu Valença
Esse não é o compositor? Avise-nos.
Contribuição: boneco Correções: diego_palmeira e mais 1 »
Consegui tocarAinda não conseguiram tocar essa música. Seja o primeiro!
    Não consegui tocar
    Exibir acordes »
    publicidade
    fechar