Chalana

Almir Sater

 Almir Sater
Tom: A
		
Intro:


E|-12----12----12----------|
B|-12----12----12----------|
G|-12----12----12----------|
E|-12----12----12----------|
B|-12----12----12----------|



E|-7----7----12----12------|
B|-7----7----12----12------|
G|-7----7----12----12------|
E|-7----7----12----12------|
B|-7----7----12----12------|



E|-11-11---9--9----7-7---5-5---|
B|-12-12---10-10---9-9---7-7---|
G|-----------------------------|
E|-----------------------------|
B|-----------------------------|



E|-12----12------------|
B|-12----12------------|
G|-12----12------------|
E|-12----12------------|
B|-12----12------------|


(solo vocal na viola)

  La vai uma chalana

E|-4-4--2-4-5-7-7----------|
B|-5-5--4-5-7-9-9----------|
G|-------------------------|
E|-------------------------|
B|-------------------------|

  Bem longe se vai

E|-11-11--7-5-4------------|
B|-12-12--9-7-5------------|
G|-------------------------|
E|-------------------------|
B|-------------------------|


  Navegando no remanso

E|-4-4--2-4-5-7-7----------|
B|-5-5--4-5-7-9-9----------|
G|-------------------------|
E|-------------------------|
B|-------------------------|


  Do rio Paraguai

E|-7-7--5-4-2--------------|
B|-9-9--7-5-4--------------|
G|-------------------------|
E|-------------------------|
B|-------------------------|



|------------------ 2X ------------------------------------|


  Ah! Chalana sem querer

E|-9--9--9--9--9--7--9-----------|
B|-10-10-10-10-10-9--10----------|
G|-------------------------------|
E|-------------------------------|
B|-------------------------------|


  Tu aumentas minha dor

E|-7-7-7---5-4-5-7----------|
B|-9-9-9---7-5-7-9----------|
G|--------------------------|
E|--------------------------|
B|--------------------------|


  Nessas águas tão serenas

E|-----------2-2---11------|
B|--0-0-4-4--4-4---12------|
G|-1-1--3-3----------------|
E|-------------------------|
B|-------------------------|


  Vai levando meu amor

E|-9--9--7-7--5-5--4-4-----|
B|-10-10-9-9--7-7--5-5-----|
G|-------------------------|
E|-------------------------|
B|-------------------------|



|---------------------------------------------------------|


  E assim ela se foi

E|-4-4--7-7--12-12--16-----|
B|-5-5--9-9--12-12--17-----|
G|-------------------------|
E|-------------------------|
B|-------------------------|

  Nem de mim se despediu

E|-16-16--14-14--12-12--11-----|
B|-17-17--16-16--14-14--12-----|
G|-----------------------------|
E|-----------------------------|
B|-----------------------------|

  A chalana vai sumindo              Na curva lá do rio

E|-9--9--9--9--9----11--12------|---12-12---11----9--9---7-7-----|
B|-10-10-10-10-10---12--14------|---14-14---12----10-10--9-9-----|
G|------------------------------|
E|------------------------------|
B|------------------------------|


  E se ela vai magoada...  Eu bem sei que tem razão

E|-4-4--2-4-5-7----7-11-11--9----7-7--6--5----|
B|-5-5--4-5-7-9----9-12-12--10---9-9--8--7----|
G|--------------------------------------------|
E|--------------------------------------------|
B|--------------------------------------------|


  Fui ingrato...Eu feri o seu pobre coração

E|-11-11-11-11-11-9--11----9--7-7--5-5-4-4--|
B|-12-12-12-12-12-10-12----10-9-9--7-7-5-5--|
G|------------------------------------------|
E|------------------------------------------|
B|------------------------------------------|



|------------------ 2X ------------------------------------|


  Ah! Chalana sem querer

E|-9--9--9--9--9--7--9-----------|
B|-10-10-10-10-10-9--10----------|
G|-------------------------------|
E|-------------------------------|
B|-------------------------------|


  Tu aumentas minha dor

E|-7-7-7---5-4-5-7----------|
B|-9-9-9---7-5-7-9----------|
G|--------------------------|
E|--------------------------|
B|--------------------------|


  Nessas águas tão serenas

E|-----------2-2---11------|
B|--0-0-4-4--4-4---12------|
G|-1-1--3-3----------------|
E|-------------------------|
B|-------------------------|


  Vai levando meu amor

E|-9--9--7-7--5-5--4-4-----|
B|-10-10-9-9--7-7--5-5-----|
G|-------------------------|
E|-------------------------|
B|-------------------------|



|---------------------------------------------------------|


E assim ela se foi

E|-4-4--7-7--12-12--16-----|
B|-5-5--9-9--12-12--17-----|
G|-------------------------|
E|-------------------------|
B|-------------------------|

  Nem de mim se despediu

E|-16-16--14-14--12-12--11-----|
B|-17-17--16-16--14-14--12-----|
G|-----------------------------|
E|-----------------------------|
B|-----------------------------|

  A chalana vai sumindo              Na curva lá do rio

E|-9--9--9--9--9----11--12------|---12-12---11----9--9---7-7-----|
B|-10-10-10-10-10---12--14------|---14-14---12----10-10--9-9-----|
G|------------------------------|
E|------------------------------|
B|------------------------------|


  E se ela vai magoada...  Eu bem sei que tem razão

E|-4-4--2-4-5-7----7-11-11--9----7-7--6--5----|
B|-5-5--4-5-7-9----9-12-12--10---9-9--8--7----|
G|--------------------------------------------|
E|--------------------------------------------|
B|--------------------------------------------|


  Fui ingrato...Eu feri o seu pobre coração

E|-11-11-11-11-11-9--11----9--7-7--5-5-4-4--|
B|-12-12-12-12-12-10-12----10-9-9--7-7-5-5--|
G|------------------------------------------|
E|------------------------------------------|
B|------------------------------------------|



|------------------ 2X ------------------------------------|


  Ah! Chalana sem querer

E|-9--9--9--9--9--7--9-----------|
B|-10-10-10-10-10-9--10----------|
G|-------------------------------|
E|-------------------------------|
B|-------------------------------|


  Tu aumentas minha dor

E|-7-7-7---5-4-5-7----------|
B|-9-9-9---7-5-7-9----------|
G|--------------------------|
E|--------------------------|
B|--------------------------|


  Nessas águas tão serenas

E|-----------2-2---11------|
B|--0-0-4-4--4-4---12------|
G|-1-1--3-3----------------|
E|-------------------------|
B|-------------------------|


  Vai levando meu amor

E|-9--9--7-7--5-5--4-4-----|
B|-10-10-9-9--7-7--5-5-----|
G|-------------------------|
E|-------------------------|
B|-------------------------|



|---------------------------------------------------------|



E|-12----12----12----------|
B|-12----12----12----------|
G|-12----12----12----------|
E|-12----12----12----------|
B|-12----12----12----------|



E|-7----7----12----12------|
B|-7----7----12----12------|
G|-7----7----12----12------|
E|-7----7----12----12------|
B|-7----7----12----12------|




E|-11-11---9--9----7-7---5-5---|
B|-12-12---10-10---9-9---7-7---|
G|-----------------------------|
E|-----------------------------|
B|-----------------------------|


final uma batida só em cada acorde


E|-12--7--12------------|
B|-12--7--12------------|
G|-12--7--12------------|
E|-12--7--12------------|
B|-12--7--12------------|

14.584 exibições

Comentários 1

Composição: Mario Zan e Arlindo Pinto
Esse não é o compositor? Avise-nos.
Contribuição: Ligeirinhoo
Consegui tocarAinda não conseguiram tocar essa música. Seja o primeiro!
    Não consegui tocar
    Exibir acordes »
    publicidade
    fechar