Trem do Pantanal

Almir Sater

 Almir Sater
Tom: E
		
(intro) E G#7 C#m E A
        E G#7 C#m C F#m B7 E

(tab viola)

|--4-4-7-5-7-5-5-s-7-|-7-5-5-4-4-2-2-s--9--|---9--9-8-9-8---|-8-8-8-|--12-12-12-12-12-12--------|
|--5-5-9-7-9-7-7-s-9-|-9-7-7-5-5-4-4-s-10--|--10-10-9-9-9---|-9-9-9-|--14-14-14-14-14-14--------|
|--------------------|---------------------|----------------|-------|---------------------------|
|--------------------|---------------------|----------------|-------|---------------------------|
|--------------------|---------------------|----------------|-------|---------------------------|



|--4-4-5-5-7-7--9--s-|-9--9--9-s-10-10-s-12-12-12-12-12-8-s-|---9---|-4-4-4-5-5-4-2-2-4-4-2-0---|  
|--5-5-7-7-9-9-10--s-|10-10-10-s-12-12-s-14-14-14-14-14-9-s-|--10---|-8-5-5-7-7-5-4-4-5-5-4-5---|
|--------------------|--------------------------------------|-------|-------------------------5-|
|--------------------|--------------------------------------|-------|---------------------------|
|--------------------|--------------------------------------|-------|---------------------------|


E                            G#7
Enquanto este velho trem atravessa o pantanal
C#m               E                 A
As estrelas do cruzeiro fazem um sinal
    E                    G#7
De que este é o melhor caminho
         C#m    C           F#m         B7  E
Pra quem é como eu, mais um fugitivo da guerra
E                            G#7
Enquanto este velho trem atravessa o pantanal
    C#m             E                       A
O povo lá em casa espera que eu mande um postal
    E                G#7       C#m    C
Dizendo que eu estou muito bem vivo
       F#m               B7  E
Rumo a Santa Cruz de La Sierra

(solo) E G#7 C#m E A
       E G#7 C#m C F#m B7 E

E                            G#7
Enquanto este velho trem atravessa o pantanal
C#m               E                A
Só meu coração esta batendo desigual
          E          G#7  C#m       C
Ele agora sabe que o medo viaja também
      F#m                 B7 E    C
Sobre todos os trilhos da terra
       F#m               B7  E    C
Rumo a Santa Cruz de La Sierra
      F#m                 B7  E
Sobre todos os trilhos da terra

Comentários 0

Composição: Paulo Simões / Geraldo Roça
Esse não é o compositor? Avise-nos.
Contribuição: korpo Correções: Ari Filho , Roger e mais 5 »
Exibir acordes »
publicidade
fechar