Até Amanhecer

Amannda Condesca

 Amannda Condesca
Tom: D
		
Intro 2x: Bm G D9 D A


       B4             G              D9        D   A4 A
E|--------------------------------------0-0h2-0---------|
B|--------0-----0--------0-----0------3-----------3-2---|
G|------4---4----------4---4--------2-----------2-----4-|
D|----4-------4------4-------4----0---------------------|
A|--2---------------------------------------------------|
E|-----------------3------------------------------------|



       B4             G              D9        D A9
E|--------------------------------------0-0h2-0------|
B|--------0-----0--------0-----0------3-------0------|
G|------4---4----------4---4--------2---------2------|
D|----4-------4------4-------4----0-----------2------|
A|--2-----------------------------------------0------|
E|-----------------3---------------------------------|


Bm                  G                D               A
Fiz os meus pedidos, te contei quase todos os segredos
                  Bm            G
Até lembrei o que tinha esquecido
               D                    A
Desisti, porque não era mais tão cedo
Bm                 G                  D              A
Não tinha percebido que um dia enfrentei aqueles medos
                    Bm               G                  D            A
e os sonhos que não eram mais felizes, acabaram com um gosto bem azedo

Refrão:
          Bm G        D              A
Não vou chorar, te espero até amanhecer
          Bm G         D               A
Pra me acalmar, só preciso ficar com você!

(Intro)

Bm           G                      D             A
Era proibido, mesmo assim eu quis viver esse desejo.
                     Bm           G
Nos seus braços encontrei o paraíso
                    D                  A
Não consigo mais viver sem os seus beijos
    Bm             G                  D              A
Não tinha percebido que um dia enfrentei aqueles medos
                     Bm              G                  D            A
e os sonhos que não eram mais felizes, acabaram com um gosto bem azedo

Refrão:
         Bm G        D              A
Não vou chorar, te espero até amanhecer
          Bm G         D               A
Pra me acalmar, só preciso ficar com você!
27.956 exibições

Comentários 5

Composição: Sabe quem é o compositor? Envie pra gente. Contribuição: Carol Santin Correções: Nyell e mais 2 »
Exibir acordes »
publicidade
fechar