Tom: G
		
Intro 2x: D9  D4  D  D9  Bm7/4  Bm5+  Bm7  Bm7/4  C9  G/B  A4  Bb4+


E|---------0---------3----------2h0----------|----------0--------3---------2h0---------------|
B|------3-----3---------3------------3-------|--------3---2---------3------------3-----------|
G|----2----------2---------2------------2----|------2-------3----------2-------------2-------|
D|--0----------------------------------------|-----------------------------------------------|
A|-------------------------------------------|---2-------------------------------------------|
E|-------------------------------------------|-----------------------------------------------|



E|-------------------------------------------------------0---------------0-------------------|
B|--------------3-----------------------3--------------3----3----------3---3-----------------|
G|------------0---0-------------------0---0----------2---------------0-----------------------|
D|-------------------------------------------------------------------------------------------|
A|---3--------------------------2------------------0---------------1-------------------------|
E|-------------------------------------------------------------------------------------------|



D9 Bm7 Bb5+ D9
Eu vejo em seus olhos quem eu quero ser
Bm7 Bb5+ C9
Eu tenho em um sorriso o meu amanhecer
G/B Bb5+
Mas sei que é difícil crer
D9 Bm7 Bb5+ D9
Eu ouço melodias no fundo de um olhar
Bm7 Bb5+ C9
E oro noite e dia pra Deus te observar
G/B Bb5+
Mas sei que é difícil crer
D9 Bm7/4 C9 G/B
Mas não deixa a tempestade cobrir sua vontade
A4 Bb4+ D9
De atravessar as nuvens e viver
Bm7/4 C9 G/B
Olhando o horizonte que não está tão longe
A4 Bb4+ D9 Bm7/4 C9 G/B Bb4+
E esperar no Deus que vai além
D9 Bm7 Bb5+ D9
Deus vê em suas lágrimas a força pra vencer
Bm7 Bb5+ C9
E ouve seus pedidos e quer te ver crescer
G/B Bb5+
Mas sei que é difícil crer
D9 Bm7/4 C9 G/B
Mas não deixa a tempestade cobrir sua vontade
A4 Bb4+ D9
De atravessar as nuvens e viver
Bm7/4 C9 G/B
Olhando o horizonte que não está tão longe
A4 Bb4+ D9
E esperar no Deus que vai além
Bm7/4 C9 G/B
Além das circunstâncias, palavras ou distâncias
A4 Bb4+ D9
Transforma o medo em força pra vencer
Bm7/4 C9 G/B
E olhe o horizonte que não está tão longe
A4 Bb4+ D9 
E espere neste Deus que vai além

Final: D9  Bm7/4  C9  G/B  A4  Bb4+ (2x) 
       D9
10.466 exibições

Comentários 0

Composição: Sabe quem é o compositor? Envie pra gente. Contribuição: Sargom Correções: willianferrer »
Exibir acordes »
publicidade
fechar