Tom: G
		
Intro:

    G           B7          Em          C         G           D     G     D
E|-------------------------------------------------------------------|
B|-3---------3-4---------4-5-----------3-1-1---0-3-----------3-------|
G|---4-2-0-4-----4-2-0-4-----4-2-0-2h4-------------4-2-0-2h4---4p2-0-|
D|-------------------------------------------------------------------|
A|-------------------------------------------------------------------|
E|-------------------------------------------------------------------|


G            B7
Flaca, no me claves,
      Em                 C
Tus puñales, por la espalda,
        G             D
Tan profundo, no me duelen,
             G     D
No me hacen mal.

 G            B7
Lejos, en el centro,
        Em            C
De la tierra, las raíces,
      G            D
Del amor, donde estaban,
      G     D
Quedaran.

G
Entre no me olvides,
      B7
Me deje nuestros abriles,
     Em
Olvidados,
                    C
En el fondo del placard,
                   G
Del cuarto de invitados,
                D
Eran tiempos dorados,
             G     D
Un pasado mejor.

        G
Aunque casi me equivoco
      B7
Y te digo poco a poco,
        Em
No me mientas,
                   C
No me digas la verdad,
                 G
No te quedes callada,
                D
No levantes la voz,
                G     D
Ni me pidas perdón.
        G
Aunque casi te confieso,
        B7
Que también he sido un perro,
     Em
Compañero,
                     C            G
Un perro ideal que aprendió a ladrar,
                 D
Y a volver al hogar,
              G    D
Para poder comer.

G            B7
Flaca, no me claves,
      Em                 C
Tus puñales, por la espalda,
        G             D
Tan profundo, no me duelen,
             G     D
No me hacen mal.

Outro:

     G           B7          Em          C         G           D     G     D
E|-------------------------------------------------------------------|
B|-3---------3-4---------4-5-----------3-1-1---0-3-----------3-------|
G|---4-2-0-4-----4-2-0-4-----4-2-0-2h4-------------4-2-0-2h4---4p2-0-|
D|-------------------------------------------------------------------|   (2x)
A|-------------------------------------------------------------------|
E|-------------------------------------------------------------------|



               G    B7   Em        C      G       D       G    D
E|---------------------2--------------------3-------2---------------------------|
B|----------------5-4----5-------3-------3-------3-----------------------------|
G|---------2-5-4-----------4-2-4---5---2-4-----4-2-----2-0-----------------------|
D|---2-4-5----------------------------------------------------------------------|
A|-5----------------------------------------------------------------------------|
E|------------------------------------------------------------------------------|

Comentários 3

  • dorial dorial: Postado em 19/09/2011 13:18

    Gostosa de tocar e muito barbada o solo.

  • w.bruna. w.bruna.: Postado em 22/07/2011 20:05

    muito facil!

    • dorial dorial: Postado em 19/09/2011 13:16

      é verdade Bruna, e o solinho tbm.

Composição: Francesco Migliacci / Lalah Hathaway / Paul Richmond
Esse não é o compositor? Avise-nos.
Contribuição: mandrake Correções: Alexis e mais 1 »
Exibir acordes »
publicidade
fechar