Invade minh'alma

Anjos de Resgate

 Anjos de Resgate
Tom: G
		

Intro: D   G9   G    D4   D   Bm   Em   A   G   D
E|-------------------|
B|-----------------3-|
G|-----------2-------|
D|----0-2-4----2 ----|
A|—0-----------------|
E|-------------------|



E|--------------------------|------------------------|
B|--------------------------|------------------------|
G|--------------------------|------------------------|
D|--4--4--5--5\7--7--9-9--5-|--5--5--9---9\11--11--9-|
A|--5--5--7--7\9--9---7---7-|--7--7--11—11\12--12--11|
E|--------------------------|------------------------|



E|----------------|-------------------|
B|----------------|-------------------|
G|--7-7-6---------|--6-6-4-2-0—0h2----|
D|--------7--5----|----------------4--|
A|----------------|-------------------|
E|----------------|-------------------|



D          G9    G              D4  D    Bm
Invade minh'alma   me ama e me acalma
              Em   A7              G   D   D/C     e/--2h3--|
E sonda o meu ser     me cura e me salva.
         G/B   Bb6           D/A    G#º
Tua intimidade:   quero conhecer!
            G    G/A               D    Am7   D
E manso e humilde    também quero ser

            G    D/F#            Em   Bm
Invade minh'alma      e faz-me fiel
                Em7    G/A   A         D    Am7   D
Teu corpo e Teu sangue    me levam ao céu.

            G    A/G           F#m7            Bm
Invade minh'alma     e faz-me fiel     meu Senhor
               Em7     G/A    A        D
Teu corpo e Teu sangue     me levam ao céu.

D          G9    G              D4  D    Bm
Invade minh'alma   me ama e me acalma
              Em   A7              G   D   D/C
E sonda o meu ser     me cura e me salva.
         G/B   Bb6           D/A    G#º
Tua intimidade:   quero conhecer!
            G    G/A               D    Am7   D
E manso e humilde    também quero ser

            G    D/F#            Em   Bm
Invade minh'alma      e faz-me fiel
                Em7    G/A   A         D    Am7   D
Teu corpo e Teu sangue    me levam ao céu.

            G    A/G           F#m7            Bm
Invade minh'alma     e faz-me fiel     meu Senhor
               Em7     G/A    A        D
Teu corpo e Teu sangue     me levam ao céu.
65.542 exibições

Comentários 2

  • Rafa Soul Rafa Soul: Postado em 24/07/2012 11:17

    alguem sabe o ritmo?

    • Rafael Rafael: Postado em 02/07/2014 10:21

      dedilhado

Composição: Sabe quem é o compositor? Envie pra gente. Contribuição: kotonyko Correções: Patricio , Paulinho e mais 3 »
Exibir acordes »
publicidade
fechar