Marie Jolie

Aphrodite's Child

 Aphrodite's Child
Tom: E
		
Intro:


  F#m        B         E         E        F#m        B         E        E
E|-------0-|-------2-|---------|-------0-|-------0-|-------2-|-12--7---|5--------|
B|----2----|----4----|-------0-|----0----|----2----|----4----|-12--7---|5--------|
G|-2-------|-4-------|----1----|-1-------|-2-------|-4-------|---------|---------|
D|---------|---------|-2-------|---------|---------|---------|---------|---------|
A|---------|---------|---------|---------|---------|---------|---------|---------|
E|---------|---------|---------|---------|---------|---------|---------|---------|

                                                                                                                                                     Harmônicos    Harmônicos
F#m            B       E
Sometimes........I feel 
            F#m      B       E
That     I'm............. alone 
                      F#m    B       E 
and I wonder what....I'd    do
                 F#m   B        E 
if I couldn't turn........to  you 
                       F#m           C#m  
You are all my life........and more
                       F#m        
take this love I give........

C#m     B       C#m
Marie.......     Jolie 
C#m     B       C#
Marie....... Jolie
 
        F#m   B      E
The  sea....sons change 
      F#m  B     E
but love.....  remains 
                      F#m   B         E
growing like a rose........in spring 
                         F#m   B         E
all the summer sun......... can bring
                  F#m                       C#m
I will find it when.......... I'm with you 
                    F#m   
You are all I have 

C#m     B      C#m
Marie.......    Jolie
C#m     B      C#
Marie.......    Jolie 

Solo:

  C#      F#m      B          E        E         F#m       B          E          F#m     B     E
E|-------|-------|-2h4---4--|---------|---------|---------|-2h4---4--|----4-----|------|------|---4-----|
B|3h5----|-7-----|-----7---7|-5-------|--7h9999d|7--------|-----7---7|-5---7-5-4|------|---4--|5---7-5-4|
G|-----6-|-------|----------|---------|---------|---------|----------|----------|-6----|------|---------|
D|-------|-------|----------|---------|---------|---------|----------|----------|------|------|---------|
A|-------|-------|----------|---------|---------|---------|----------|----------|------|------|---------|
E|-------|-------|----------|---------|---------|---------|----------|----------|------|------|---------|



  F#m     B      E          F#m        C#m         F#m       C#m   B       C#m        C#m   B        C#
E|------|------|----4-----|----------|-----4-----|----------|----|--------|----------|----|--------|-------|
B|------|---4--|-5---7-5-4|------2h4-|4d2---7-5-4|---------4|-5--|-4------|---------4|-5--|-4------|-------|
G|-6----|------|----------|-6--------|-----------|-6-----6--|----|----6d4h|6------6--|----|-----6h8|-6-----|
D|------|------|----------|----------|-----------|----------|----|--------|----------|----|--------|-------|
A|------|------|----------|----------|-----------|----------|----|--------|----------|----|--------|-------|
E|------|------|----------|----------|-----------|----------|----|--------|----------|----|--------|-------|


    F#m     B           E
I know .....   there'll be 
        F#m     B         E
Sad times........ for me
                        F#m   B     E
But as long as you   are there
                     F#m   B       E
I know that I need   not care
                      F#m          C#m 
Love is everywhere you are
                      F#m
My life is the girl


C#m     B      C#m
Marie.......     Jolie
C#m     B       C#
Marie.......     Jolie 

      F#m    B           E
But if .........      you keep 
       F#m     B            E
your love......... from me
                     F#m   B        E
I will have no way ...... to turn
                 F#m     B        E
I will find if hard ..... to learn
                 F#m        C#m 
living life without a dream 
                          F#m
which may will I be 


   C#m   B       C#m
Marie............ Jolie
   C#m    B      C#
Marie............ Jolie

Segue até o final: F#m  /  B  /  E
4.504 exibições

Comentários 0

Composição: Alain Chamfort / G. Arnheim
Esse não é o compositor? Avise-nos.
Consegui tocarAinda não conseguiram tocar essa música. Seja o primeiro!
    Não consegui tocar
    Exibir acordes »
    publicidade
    fechar