A Filha

Armandinho

 Armandinho
Tom: G#(acordes na forma do tom G)
Capotraste na 1ª casa		

            D7+               G7+               D7+         G7+
E|-----6---------6--------------6------------------------------6----------------10---6-------
B|--------8---------8--6-----------8--6---------------------------8--6-----------------------
G|-----------------------8--5--------------8--5---8---------------------8--5-----------------
D|-------------------------------------------------------------------------------------------
A|-------------------------------------------------------------------------------------------
E|-------------------------------------------------------------------------------------------


D7+                               G7+
Quando me dá uma louca eu saio pra rua pra beijar na boca
D7+                               G7+                            D7+      G7+
uma calça desbotada e a cabeça virada pra chamar a atenção de você
               D7+     G7+
só de você...


            D7+                 G7+               D7+         G7+
E|--------------------------------------------------------------------------------------
B|-------------------------------------------4-------------6----------------------------
G|------------------------------------3---5-----5----3--5-------------------------------
D|-----------1--------------3-----------------------------------------------------------
A|-1----3-------3----1---3--------------------------------------------------------------
E|--------------------------------------------------------------------------------------


D7+                               G7+
Eu nunca saio da linha, eu só saio sozinha, não tenho ninguém
D7+                               G7+
mamãe as vezes reclama que eu não vou pra cama com alguém.
D7+            G7+
Ela não sabe, a filha que tem...
Ela não sabe, a filha que tem...
D7+                               G7+
Quando me dá uma louca eu saio pra rua pra beijar na boca
D7+                               G7+          D7+                                G7+
uma calça desbotada e a cabeça virada pra chamar a atenção de você
D7+                               G7+
só de você...
D7+                                G7+
quando se sente o que se sente se for diferente, tem sempre o porque
D7+                               G7+
mamãe as vezes reclama, mas essa semana eu vou ter que dizer...
D7+                               G7+
Ela não sabe, a filha que tem...
Ela não sabe, a filha que tem...
D7+                         G7+
Nãnãnãnãnãnãnã... Nãnãnãnãnãnãnã...
D7+                             G7+
Quando me dá uma louca eu saio pra rua pra beijar na boca
D7+                             G7+                               D7+    G7+
uma calça desbotada e a cabeça virada pra chamar a atenção de você
             D7+        G7+
só de você...
D7+                             G7+
Eu nunca saio da linha, eu só saio sozinha, não tenho ninguém
D7+                              G7+
mamãe as vezes reclama que eu não vou pra cama com alguém
D7+               G7+
Ela não sabe, a filha que tem...
Ela não sabe, a filha que tem...

D7+                             G7+
Nãnãnãnãnãnãnã... Nãnãnãnãnãnãnã...
D7+                             G7+
Nãnãnãnãnãnãnã... Nãnãnãnãnãnãnã...
D7+                             G7+
Nãnãnãnãnãnãnã... Nãnãnãnãnãnãnã...

(solo)

E|----11-11-11--10--8-------------------------------------------------------------------
B|--------------------11--8-9---8-9-8--6-8-6---4-4---4-6--4-6/8-------------------------
G|--------------------------------------------------------------------------------------
D|--------------------------------------------------------------------------------------
A|--------------------------------------------------------------------------------------
E|--------------------------------------------------------------------------------------



E|---------------------------------------------13-11-10---------------------------------
B|-------6-6---4-4-4------------------------------------10------------------------------
G|----------------------5--3--3---3/5---------------------------------------------------
D|--------------------------------------------------------------------------------------
A|--------------------------------------------------------------------------------------
E|--------------------------------------------------------------------------------------


D7+                      G7+         D7+
Ela não sabe, a filha que tem...
160.008 exibições

Comentários 1

  • Débora Débora: Postado em 28/04/2014 12:47

    musica facil, batida mega dificil

Composição: Armandinho
Esse não é o compositor? Avise-nos.
Contribuição: hellisonvidal Correções: arthuralves1 , brother e mais 4 »
Exibir acordes »
publicidade
fechar