Te Amar Foi Um Erro

Ataíde e Alexandre

 Ataíde e Alexandre
Tom: F
		

                Bb                                           F
E|--------------------------------------------------
B|--------------------------------------------------
G|--------------------------------------------------
D|-----------------------4-----7-5-------------------
A|-0-2-4---2-0-7-5---5-7---7-5----------------------
E|--------------------------------------------------


                   C            F
E|--------------------------------------------------
B|--------------------------------------------------
G|-----6--------9-7------------------------------------
D|-7-9---9-7-6------------------------------------
A|------------------9-7-9-7----------------------
E|-----------------------------5--------------------


                 Bb
Te amar foi um erro
                 F
Foi um erro te amar
                   C
Mas eu erro outra vez
               F    F7
Se acaso precisar
                    Bb
Por você eu me arrependo
                        F
Das loucuras que eu já fiz
                  C
Por você vivo sofrendo
                     F     F7
Mas te amar me faz feliz
                   Bb
O amor é um laço aberto
Muito perto
Tiro certo
                   F
Esperando alguém cair
Iludir
Se ferir
                    C
Seu amor é desse jeito manhoso
                     F     F7
Safado e gostoso demais
                   Bb
O amor é um prato quente
Atraente
Envolvente
                   F
Faz a gente se servir
Engolir
Repetir
                     C
Seu amor é um jeito bom de viver
                               F
Eu não vou te esquecer nunca mais
67.863 exibições

Comentários 0

Composição: Sabe quem é o compositor? Envie pra gente. Contribuição: rikka Correções: Jorgin »
Exibir acordes »
publicidade
fechar