Sentinela do Amanha

Banda Arkanjos

 Banda Arkanjos Compositor: Gabriel Augusto
Tom: C
		
Intro:

E|0-0-0-0-0-0-0-0--0-0-0-0-0-0-0-0---------------
B|0-0-0-0-0-0-0-0--1-1-1-1-1-1-1-1---------------
G|-----------------------------------------------
D|-----------------------------------------------
A|-----------------------------------------------
E|-----------------------------------------------



E|0-0-0-0-0-0-0-0--0-0-0-0-0-0-0-0---------------
B|0-0-0-0-0-0-0-0--1-1-1-1-1-1-1-1---------------
G|-----------------------------------------------
D|-----------------------------------------------
A|-----------------------------------------------
E|-----------------------------------------------


Em7(9)              C9
No coração da noite   Pode o medo chegar
Em7(9)              C9
Espero ansiosamente  A luz da aurora aparecer
       Bm                     C7M                         Bm
Eu sei, que a manhã logo vem, vem o alvorecer de um novo tempo
              Am
Mas ainda é noite

G                           Am
Tenho um posto pra guardar Sou chamado a anunciar
G                        Am                            Bm
Até meu nome Deus trocou Agora eu já sei quem sou, eu sou...

    C7M      Bm7
Sentinela da Manhã
       C7M                 Bm
Que anuncia a chegada do sol
     C7M                    Bm7
Proclama que Jesus Ressuscitou

Em7(9)                               C9
Eu sei que o dia vem, Vem, maranathá vem
Em7(9)                              C9
Jesus minha esperança Que nunca me engana
  Bm7                      C7M                            Bm
Eu sei mundo quer sua luz Quer o alvorecer de um novo tempo
               Am
Mas ainda é noite...
27.964 exibições

Comentários 1

Composição: Sabe quem é o compositor? Envie pra gente. Contribuição: Gabriel Correções: santece , Tathá e mais 4 »
Exibir acordes »
publicidade
fechar