Pega a senha

Batô e Fernando

Sem foto do Batô e Fernando
Tom: G
		
(intro) G F#m Em D7

               G                                       D
Pega a senha e vai la pro final da fila
                                             C9
Você brincou com a minha vida
                                                D7
E agora já tem outra em seu lugar


E|----------------------------------------------------------|
B|----------------------------------------------------------|
G|--------------------------------------------9-9-7-9-9-7-9-|
D|--------------9/10-10-9-10-9-10-10-9-10-9-10--------------|
A|---------10-10--------------------------------------------|
E|-10-10-10-------------------------------------------------|


(solo parte  2)

E|--------------------------8-8-10-7-5-3-------------------|
B|------------------8-8-8/10-------------------------------|
G|--------7-7-7--7-7---------------7-5-4-------------------|
D|10-10-10-----10------------------------------------------|
A|---------------------------------------------------------|
E|---------------------------------------------------------|


D                                     C9
Não adianta chorar assim
                              G
Já passou seu tempo
D9                                C9
Foi você quem foi embora
                              G
Dizendo não te aguento
D9                                   C9
Cheia de si dona da razão
                               G
Não quis nem me ouvir
                  D9                         C9
Fechou a mala emudeceu a fala
                   G
E eu te vi sair
                 D9
Bateu a porta e nem olhou pra traz
            Em
Saiu gritando não te quero mais
                C9
E agora vem com essa cara deslavada
                             D9
Querendo ser de novo minha namorada

               G                                       D
Pega a senha e vai la pro final da fila
                                             C9
Você brincou com a minha vida
                                                D7
E agora já tem outra em seu lugar
               G                             D9
Pega a senha a fila ta bem grande

Pode ir pra lá
                                           C9
Se arrependeu problema seu pode chorar
  D9
Pega a senha e espera a fila andar


E|----------------------------------------------------------|
B|----------------------------------------------------------|
G|--------------------------------------------9-9-7-9-9-7-9-|
D|--------------9/10-10-9-10-9-10-10-9-10-9-10--------------|
A|---------10-10--------------------------------------------|
E|-10-10-10-------------------------------------------------|


(solo parte  2)

E|--------------------------8-8-10-7-5-3-------------------|
B|------------------8-8-8/10-------------------------------|
G|--------7-7-7--7-7---------------7-5-4-------------------|
D|10-10-10-----10------------------------------------------|
A|---------------------------------------------------------|
E|---------------------------------------------------------|



D9                                   C9
Cheia de si dona da razão
                               G
Não quis nem me ouvir
                  D9                         C9
Fechou a mala emudeceu a fala
                   G
E eu te vi sair
                 D9
Bateu a porta e nem olhou pra traz
            Em
Saiu gritando não te quero mais
                C9
E agora vem com essa cara deslavada
                             D9
Querendo ser de novo minha namorada

               G                                       D
Pega a senha e vai la pro final da fila
                                             C9
Você brincou com a minha vida
                                                D7
E agora já tem outra em seu lugar
               G                             D9
Pega a senha a fila ta bem grande

Pode ir pra lá
                                           C9
Se arrependeu problema seu pode chorar
  D9
Pega a senha e espera a fila andar
            G                                       D
Pega a senha e vai la pro final da fila
                                             C9
Você brincou com a minha vida
                                                D7
E agora já tem outra em seu lugar
               G                             D9
Pega a senha a fila ta bem grande

Pode ir pra lá
                                           C9
Se arrependeu problema seu pode chorar
  D9
Pega a senha e espera a fila andar

Pega senha
16.480 exibições

Comentários 0

Composição: Sabe quem é o compositor? Envie pra gente. Contribuição: Seco Correções: onurb_ e mais 2 »
Exibir acordes »
publicidade
fechar