Black Veil Brides

Savior

19.888 exibições
Tom: G
Afinaçao|  D A D G B E

INTRO

   Guitar 1(acoustic)

E|----------------|----------------|----------------|----------------|
B|--------0-------|----------------|--------0-------|----------------|
G|--0---0---0---0-|--0---0---0---0-|--0---0---0---0-|--0---0---0---0-|
D|----4-------4---|----4-------4---|----4-------4---|----4-------4---|
A|7---------------|7-------5-------|3---------------|3-------5-------|
D|----------------|----------------|----------------|----------------|


   Guitar 2(distorted)

E|----------------|----------------|----------------|----------------|
B|----------------|----------------|----------------|----------------|
G|----------------|----------------|----------------|----------------|
D|----------------|----------------|----------------|----------------|
A|----------------|----------------|----------------|----------------|
D|----------------|----------------|----------------|----------------|


   Guitar 3(distorted/harmony)

E|----------------|----------------|----------------|----------------|
B|----------------|----------------|----------------|----------------|
G|----------------|----------------|----------------|----------------|
D|----------------|----------------|----------------|----------------|
A|----------------|----------------|----------------|----------------|
D|----------------|----------------|----------------|----------------|


   Guitar 4(violin(i play it as another acoustic))

E|----------------|----------------|----------------|----------------|
B|----------------|----------------|----------------|----------------|
G|----------------|----------------|----------------|----------------|
D|----------------|----------------|----------------|----------------|
A|----------------|----------------|----------------|----------------|
D|----------------|----------------|----------------|----------------|


E|----------------|----------------|----------------|
B|--------0-------|----------------|--------0-------|
G|--0---0---0---0-|--0---0---0---0-|--0---0---0---0-|
D|----4-------4---|----4-------4---|----4-------4---|
A|7---------------|7-------5-------|3---------------|
D|----------------|----------------|----------------|


E|------------------|--------------------|------------------|
B|------------------|--------------------|------------------|
G|-9--------------7-|-9------7--9---11---|12-----------14---|
D|------------------|--------------------|------------------|
A|------------------|--------------------|------------------|
D|------------------|--------------------|------------------|


E|------------------|--------------------|------------------|
B|------------------|--------------------|------------------|
G|14-------------12-|14-----12-14---16---|17-----------19---|
D|------------------|--------------------|------------------|
A|------------------|--------------------|------------------|
D|------------------|--------------------|------------------|


E|----------------|----------------|----------------|
B|----------------|--------0-------|----------------|
G|--0---0---0---0-|--0---0---0---0-|--0---0---0---0-|
D|----4-------4---|----4-------4---|----4-------4---|
A|3-------5-------|7---------------|7-------5-------|
D|----------------|----------------|----------------|


E|----------------------|-------------------|------------------|
B|----------------------|-------------------|------------------|
G|12-----14p12p11-------|-9--7--------------|----------7-------|
D|----------------------|-------9-----------|-7----------------|
A|----------------------|-------------------|------------------|
D|----------------------|-------------------|------------------|


E|----------------------|-------------------|------------------|
B|----------------------|-------------------|------------------|
G|17-----19p17p16-------|14-12--------------|---------12-------|
D|----------------------|------14-----------|12----------------|
A|----------------------|-------------------|------------------|
D|----------------------|-------------------|------------------|


E|----------------|----------------|----------------|
B|--------0-------|----------------|--------0-------|
G|--0---0---0---0-|--0---0---0---0-|--0---0---0---0-|
D|----4-------4---|----4-------4---|----4-------4---|
A|3---------------|3-------5-------|7---------------|
D|----------------|----------------|----------------|


E|------------------|-------------------|------------------|
B|------------------|-------------------|------------------|
G|------------------|-------------------|-9--------------7-|
D|-9------------7---|-5------7p5--------|------------------|
A|------------------|-----------7-------|------------------|
D|------------------|-------------------|------------------|


E|------------------|---------------------|------------------|
B|------------------|---------------------|------------------|
G|------------------|---------------------|14-------------12-|
D|14-----------12---|10-----12p10p9-------|------------------|
A|------------------|---------------------|------------------|
D|------------------|---------------------|------------------|


E|----------------|----------------|----------------|
B|----------------|--------0-------|--------0-------|
G|--0---0---0---0-|--0---0---0---0-|--0---0---0---0-|
D|----4-------4---|----4-------4---|----4-------4---|
A|7-------5-------|3---------------|3-------5-------|
D|----------------|----------------|----------------|


E|--------------------|-------------------|---------------------|
B|--------------------|---------17---15---|13-----15p13---------|
G|-9------7--9---11---|12-----------------|------------16-------|
D|--------------------|-------------------|---------------------|
A|--------------------|-------------------|---------------------|
D|--------------------|-------------------|---------------------|


E|--------------------|---------17---15---|13-----15p13---------|
B|--------------------|-------------------|------------17-------|
G|14-----12-14---16---|17-----------------|---------------------|
D|--------------------|-------------------|---------------------|
A|--------------------|-------------------|---------------------|
D|--------------------|-------------------|---------------------|


E|----------------|----------------|----------------|
B|--------0-------|----------------|--------0-------|
G|--0---0---0---0-|--0---0---0---0-|--0---0---0---0-|
D|----4-------4---|----4-------4---|----4-------4---|
A|7---------------|7-------5-------|3---------------|
D|----------------|----------------|----------------|


E|---------------------|----------------------|--------------------|
B|---------------------|----------------------|--------------------|
G|9-11-12--------------|12-14-16--------------|16---14---12---11---|
D|---------------------|----------------------|--------------------|
A|---------------------|----------------------|--------------------|
D|---------------------|----------------------|--------------------|


E|---------------------|----------------------|--------------------|
B|---------------------|----------------------|17---15---13---12---|
G|9---------11-12-14---|-----------14-16-17---|--------------------|
D|---------------------|----------------------|--------------------|
A|---------------------|----------------------|--------------------|
D|---------------------|----------------------|--------------------|


E|----------------|----------------|----------------|
B|--------0-------|--------0-------|----------------|
G|--0---0---0---0-|--0---0---0---0-|--0---0---0---0-|
D|----4-------4---|----4-------4---|----4-------4---|
A|3-------5-------|3---------------|3-------5-------|
D|----------------|----------------|----------------|


E|--------------------|----------------|----------------|
B|--------------------|----------------|----------------|
G|-9-----11p9p7-------|----------------|----------------|
D|--------------------|----------------|----------------|
A|--------------------|----------------|----------------|
D|--------------------|----------------|----------------|


E|---------------------|----------------|----------------|
B|10-----12p10p8-------|----------------|----------------|
G|---------------------|----------------|----------------|
D|---------------------|----------------|----------------|
A|---------------------|----------------|----------------|
D|---------------------|----------------|----------------|


E|----------------|----------------|
B|--------0-------|--------0-------|
G|--0---0---0---0-|--0---0---0---0-|
D|----4-------4---|----4-------4---|
A|7---------------|7---------------|
D|----------------|----------------|




4/4 Q 145

VERSE


E|----------------|----------------|----------------|----------------|
B|----------------|--------3-------|----------------|----------------|
G|--------0-------|----0-------0---|--------7-------|----------------|
D|----2-------2---|--2---2---2---2-|----4-------4---|----5-------4---|
A|--2---2---2---2-|3---------------|--5---5---5---5-|--5---5---5---5-|
D|2---------------|----------------|4---------------|5-------4-------|


E|----------------|----------------|----------------|----------------|
B|----------------|--------3-------|----------------|----------------|
G|--------0-------|----0-------0---|--------7-------|----------------|
D|----2-------2---|--2---2---2---2-|----4-------4---|----5-------4---|
A|--2---2---2---2-|3---------------|--5---5---5---5-|--5---5---5---5-|
D|2---------------|----------------|4---------------|5-------4-------|


E|----------------|----------------|----------------|----------------|
B|----------------|--------3-------|----------------|----------------|
G|--------0-------|----0-------0---|--------7-------|----------------|
D|----2-------2---|--2---2---2---2-|----4-------4---|----5-------4---|
A|--2---2---2---2-|3---------------|--5---5---5---5-|--5---5---5---5-|
D|2---------------|----------------|4---------------|5-------4-------|


E|----------------|----------------|----------------|----------------|
B|----------------|--------3-------|----------------|----------------|
G|--------0-------|----0-------0---|--------7-------|----------------|
D|----2-------2---|--2---2---2---2-|----4-------4---|----5-------7---|
A|--2---2---2---2-|3---------------|--5---5---5---5-|--5---5---7---7-|
D|2---------------|----------------|4---------------|5-------7-------|


E|----------------|----------------|----------------|----------------|
B|--------3-------|--------3-------|----------------|----------------|
G|----0-------0---|----0-------0---|----------------|----------------|
D|--2---2---2---2-|--4---4---4---4-|----2-------4---|----5-------7---|
A|3---------------|5---------------|--2---2---5---5-|--5---5---7---7-|
D|----------------|----------------|2-------4-------|5-------7-------|


E|----------------|----------------|
B|--------3-------|3---------------|
G|----0-------0---|0---------------|
D|--2---2---2---2-|4---------------|
A|3---------------|5---------------|
D|----------------|------------5-4-|




3/4 Q 145

CHORUS


E|------------|------------|------------|------------|
B|--------0---|--------0---|--------0---|--------0---|
G|--0---0---0-|--0---0---0-|--0---0---0-|--0---0---0-|
D|----4-------|----4-------|----4-------|----4-------|
A|------------|3-----------|5-----------|2-----------|
D|2-----------|------------|------------|------------|


E|------------|------------|------------|------------|
B|--------0---|--------0---|--------0---|--------0---|
G|--0---0---0-|--0---0---0-|--0---0---0-|--0---0---0-|
D|----4-------|----4-------|----4-------|----4-------|
A|------------|3-----------|------------|------------|
D|2-----------|------------|5-----------|4-----------|


E|------------|------------|------------|------------|
B|--------0---|--------0---|--------0---|--------0---|
G|--0---0---0-|--0---0---0-|--0---0---0-|--0---0---0-|
D|----4-------|----4-------|----4-------|----4-------|
A|------------|3-----------|5-----------|2-----------|
D|2-----------|------------|------------|------------|


E|------------|------------|------------|------------|
B|--------0---|--------0---|--------0---|--------0---|
G|--0---0---0-|--0---0---0-|--0---0---0-|--0---0---0-|
D|----4-------|----4-------|----4-------|----4-------|
A|------------|3-----------|------------|------------|
D|2-----------|------------|5-----------|4-----------|




4/4 Q 145

BRIDGE


E|----------------|----------------|----------------|----------------|
B|--------0-------|----------------|--------0-------|----------------|
G|--0---0---0---0-|--0---0---0---0-|--0---0---0---0-|--0---0---0---0-|
D|----4-------4---|----4-------4---|----4-------4---|----4-------4---|
A|7---------------|7-------5-------|3---------------|3-------5-------|
D|----------------|----------------|----------------|----------------|


E|----------------|----------------|-----------------|-----------------|
B|----------------|----------------|-----------------|-----------------|
G|----------------|----------------|--9-7-9-7-9-7-12-|7-9-7-11-7-9-7-9-|
D|----------------|----------------|-----------------|-----------------|
A|----------------|----------------|-----------------|-----------------|
D|----------------|----------------|-----------------|-----------------|


E|----------------|----------------|-----------------------|------------------------|
B|----------------|----------------|-----------------------|------------------------|
G|----------------|----------------|--14-12-14-12-14-12-17-|12-14-12-16-12-14-12-14-|
D|----------------|----------------|-----------------------|------------------------|
A|----------------|----------------|-----------------------|------------------------|
D|----------------|----------------|-----------------------|------------------------|


E|----------------|----------------|----------------|----------------|
B|12--------------|--------10------|8---------------|--------10------|
G|----------------|----------------|----------------|----------------|
D|----------------|----------------|----------------|----------------|
A|----------------|----------------|----------------|----------------|
D|----------------|----------------|----------------|----------------|




4/4 Q 145

VERSE


E|----------------|----------------|----------------|----------------|
B|----------------|--------3-------|----------------|----------------|
G|--------0-------|----0-------0---|--------7-------|----------------|
D|----2-------2---|--2---2---2---2-|----4-------4---|----5-------4---|
A|--2---2---2---2-|3---------------|--5---5---5---5-|--5---5---5---5-|
D|2---------------|----------------|4---------------|5-------4-------|


   Guitar 4(violin)

E|----------------|----------------|----------------|----------------|
B|5---------------|----------------|----------------|----------------|
G|----------------|7---------------|6---------------|7-------6-------|
D|----------------|----------------|----------------|----------------|
A|----------------|----------------|----------------|----------------|
D|----------------|----------------|----------------|----------------|


E|----------------|----------------|----------------|----------------|
B|----------------|--------3-------|----------------|----------------|
G|--------0-------|----0-------0---|--------7-------|----------------|
D|----2-------2---|--2---2---2---2-|----4-------4---|----5-------4---|
A|--2---2---2---2-|3---------------|--5---5---5---5-|--5---5---5---5-|
D|2---------------|----------------|4---------------|5-------4-------|


    W                W                W                H        H

E|----------------|----------------|----------------|------------------|
B|----------------|----------------|----------------|------------------|
G|4---------------|7---------------|9---------------|11-------12-------|
D|----------------|----------------|----------------|------------------|
A|----------------|----------------|----------------|------------------|
D|----------------|----------------|----------------|------------------|


E|----------------|----------------|----------------|----------------|
B|----------------|--------3-------|----------------|----------------|
G|--------0-------|----0-------0---|--------7-------|----------------|
D|----2-------2---|--2---2---2---2-|----4-------4---|----5-------4---|
A|--2---2---2---2-|3---------------|--5---5---5---5-|--5---5---5---5-|
D|2---------------|----------------|4---------------|5-------4-------|


E|----------------|----------------|----------------|----------------|
B|----------------|----------------|----------------|----------------|
G|4---------------|7---------------|6---------------|7-------6-------|
D|----------------|----------------|----------------|----------------|
A|----------------|----------------|----------------|----------------|
D|----------------|----------------|----------------|----------------|


E|----------------|----------------|----------------|----------------|
B|----------------|--------3-------|----------------|----------------|
G|--------0-------|----0-------0---|--------7-------|----------------|
D|----2-------2---|--2---2---2---2-|----4-------4---|----5-------7---|
A|--2---2---2---2-|3---------------|--5---5---5---5-|--5---5---7---7-|
D|2---------------|----------------|4---------------|5-------7-------|


E|----------------|----------------|----------------|----------------|
B|----------------|----------------|----------------|----------------|
G|4---------------|7---------------|6---------------|7-------6-------|
D|----------------|----------------|----------------|----------------|
A|----------------|----------------|----------------|----------------|
D|----------------|----------------|----------------|----------------|


E|----------------|----------------|----------------|----------------|
B|--------3-------|--------3-------|----------------|----------------|
G|----0-------0---|----0-------0---|----------------|----------------|
D|--2---2---2---2-|--4---4---4---4-|----2-------4---|----5-------7---|
A|3---------------|5---------------|--2---2---5---5-|--5---5---7---7-|
D|----------------|----------------|2-------4-------|5-------7-------|


E|----------------|----------------|----------------|----------------|
B|5---------------|7---------------|5-------3-------|0---------------|
G|----------------|----------------|----------------|--------2-------|
D|----------------|----------------|----------------|----------------|
A|----------------|----------------|----------------|----------------|
D|----------------|----------------|----------------|----------------|


E|----------------|----------------|
B|--------3-------|3---------------|
G|----0-------0---|0---------------|
D|--2---2---2---2-|4---------------|
A|3---------------|5---------------|
D|----------------|------------5-4-|


E|----------------|----------------|
B|5---------------|7---------------|
G|----------------|----------------|
D|----------------|----------------|
A|----------------|----------------|
D|----------------|----------------|




3/4 Q 145

CHORUS


E|------------|------------|------------|------------|
B|--------0---|--------0---|--------0---|--------0---|
G|--0---0---0-|--0---0---0-|--0---0---0-|--0---0---0-|
D|----4-------|----4-------|----4-------|----4-------|
A|------------|3-----------|5-----------|2-----------|
D|2-----------|------------|------------|------------|


   Guitar 4(violin)

E|------------|------------|------------|------------|
B|8-----------|7-----------|5-----------|3-----------|
G|------------|------------|------------|------------|
D|------------|------------|------------|------------|
A|------------|------------|------------|------------|
D|------------|------------|------------|------------|


E|------------|------------|------------|------------|
B|--------0---|--------0---|--------0---|--------0---|
G|--0---0---0-|--0---0---0-|--0---0---0-|--0---0---0-|
D|----4-------|----4-------|----4-------|----4-------|
A|------------|3-----------|------------|------------|
D|2-----------|------------|5-----------|4-----------|


E|------------|------------|------------|------------|
B|0-----------|3-----------|5-----------|7-----------|
G|------------|------------|------------|------------|
D|------------|------------|------------|------------|
A|------------|------------|------------|------------|
D|------------|------------|------------|------------|

E|------------|------------|------------|------------|
B|--------0---|--------0---|--------0---|--------0---|
G|--0---0---0-|--0---0---0-|--0---0---0-|--0---0---0-|
D|----4-------|----4-------|----4-------|----4-------|
A|------------|3-----------|5-----------|2-----------|
D|2-----------|------------|------------|------------|


E|------------|------------|------------|------------|
B|8-----------|7-----------|5-----------|3-----------|
G|------------|------------|------------|------------|
D|------------|------------|------------|------------|
A|------------|------------|------------|------------|
D|------------|------------|------------|------------|


E|------------|------------|------------|------------|
B|--------0---|--------0---|--------0---|--------0---|
G|--0---0---0-|--0---0---0-|--0---0---0-|--0---0---0-|
D|----4-------|----4-------|----4-------|----4-------|
A|------------|3-----------|------------|------------|
D|2-----------|------------|5-----------|4-----------|


E|------------|------------|------------|------------|
B|0-----------|3-----------|5-----------|7-----------|
G|------------|------------|------------|------------|
D|------------|------------|------------|------------|
A|------------|------------|------------|------------|
D|------------|------------|------------|------------|

Comentários 17

140 .
  • guilherme.vianadossantos.5 guilherme.vianadossantos.5: Em 14/09/2014 10:15

    Cifraclub olhem os pedidos das musicas ... Todo mundo q Aprende MUSICA

  • indiliano.oliveira indiliano.oliveira: Em 17/02/2013 11:34

    Video aula por favor cifraclub!!!

  • jvckennedy jvckennedy: Em 06/01/2013 19:28

    Essa Ta Foda não consegui passar da intro também to sem paciência... amanhã tiro com calma.....

  • bobworsnop bobworsnop: Em 05/12/2012 00:36

    video aula seria bom né cifra club u.u

  • indioliveira indioliveira: Em 18/06/2012 00:42

    Poxa equipe, bem que poderia ter uma vídeo-aula dessa música tão boa. Seria muito bom assim como de outras. Abrç ...

  • mddanger mddanger: Em 02/06/2012 11:30

    qual é o rtimo

  • gafiofato gafiofato: Em 01/06/2012 11:08

    Quero saber o dedilhado U-U

  • bloodhoney bloodhoney: Em 10/05/2012 15:49

    como eh a batida da musica?

  • maxschuster maxschuster: Em 24/04/2012 20:41

    A Melhor Cifra é a original Mas Nessa Hora A preguissa Cresce
    Cifra Original Perfect !!

  • anabiersack anabiersack: Em 07/03/2012 18:34

    faz um video aula do Black Veil Brides-Savior por favoooooooooooor *--------*

Exibindo 10 de 17 comentários Mostrar mais ver todos »
140 cancelar

conseguiu tocar?

  • martinguitar
  • gabihgs
  • jvckennedy
  • faagner
  • paulsixx199
  • maxschuster
  • miiih6
  • •••

covers

Grave um vídeo tocando Savior e mande pra gente!

Ex.: http://www.youtube.com/watch?v=0IvSvIwGdwk
ver covers de outras músicas »
0:00 / 0:00

Capítulos

    2 versões de violão dificuldade exibições contribuição e correção
    2 versões de guitarra dificuldade exibições contribuição e correção
    2 versões de cavaco dificuldade exibições contribuição e correção
    2 versões de teclado dificuldade exibições contribuição e correção
    play/pausefechar subir/descer velocidade
    6ª corda E5ª corda A4ª corda D3ª corda G2ª corda B1ª corda E
      acordes
      publicidad
      fechar
      ok