Toada

Boca Livre

 Boca Livre
Tom: E
		
TOM : E

E                  F#m7              D7+
Vem morena ouvir comigo esta cantiga
             E/D             C#m7
Sair por essa vida  aventureira
               F#        F#/A#    B
Tanta toada eu trago na viola
       A      E/G#        F#m7 E
Pra   ver    você     mais feliz
                 F#m7
Escuta o trem de ferro alegre a cantar
D7+           E/D             C#m7
na reta da chegada prá descansar
             F#        F#/A# B         A  E
No coração sereno da toa     da, bem querer
        D#7/A#    D#/G    G#m   C#/F
Tanta saudade eu já    sentí, morena
         F#/A#       E   D#m/C#
Mas que coisa tão bonita
    E/B  D#7/A#   A7/11+   F#m7      B7/9-   A E/G# F#m7 E
Da vida,      nunca        vou me arrepender

Solo (vocal) {ô,ô,ô....} D#7/A#    D#/G    G#m   C#/F  F#/A#   E   D#m/C#

               E/B       D#7/A#  A7/11+      F#m7    B7/9-   A E/G# F#m7 E


                              Solo (vocal)

     s        s  s        s  s   s  s  s  s  s  s  s  s   s  s   s

E|--------------------------------------------------------9--------------
B|---6--------7--9-----------10--9--7-----7--------9--10-----10--9-------
G|------------------------6------------9-----8--9------------------------
D|-----------------------------------------------------------------------
A|-----------------------------------------------------------------------
E|-----------------------------------------------------------------------


     s   s  s  s  s   s  s   s  s  s  s   s  s  s  s   s  s

E|--------------------9--10--9--7--9--10--7-----7------7-----------------
B|---10--9-----7--10-------------------------9-----10-----10-------------
G|----------9------------------------------------------------------------
D|-----------------------------------------------------------------------
A|-----------------------------------------------------------------------
E|-----------------------------------------------------------------------


F#m7/9      A#m7        D#m7/9
Vem morena, Vem morena, Vem morena
           C#m7/9       F#m7/9
Vem morena, Vem morena, Vem morena
A/B      B7
Ahh...., ahhh....

E                  F#m7
Vem morena ouvir comigo esta cantiga
D7+           E/D            C#m7
Sair por essa vida  aventureira
                F#       F#/A#   B
Tanta toada eu trago na vio     la
        A       E/G#       F#m7  E
Pra   ver    você     mais fe    liz
                 F#m7
Escuta o trem de ferro alegre a cantar
D7+           E/D            C#m7
na reta da chegada prá descansar
           F#         F#/A#   B     A  E      F#m7 G#m7 E7+
No coração sereno da to a     da, bem querer
76.038 exibições

Comentários 4

  • Slim.. Slim..: Postado em 25/07/2013 19:30

    Musica boa de se toca

  • Slim.. Slim..: Postado em 27/05/2013 15:27

    Muito foda

  • drumman drumman: Postado em 04/05/2012 12:52

    Uma das músicas mais linda q já ouvi

  • rodriguinhool rodriguinhool: Postado em 09/09/2011 15:05

    foda

Composição: Charles Albertine / Paul Harlyn
Esse não é o compositor? Avise-nos.
Contribuição: Vespasiano Correções: Kitu »
Exibir acordes »
publicidade
fechar