Playback

Cartahoc

 Cartahoc Compositor: Junior Hoc
Tom: G
		
INTRODUÇÃO:  


E|-3---3---2----2----0----0---0----0----2---2----0---0-----------------|
B|---5---5----3----3----2----2---2----2----3---3----2---2---2-----2-2-2|
G|-------------------------------------------------------------3--3-3-3|
D|---------------------------------------------------------------------|
A|---------------------------------------------------------------------|
E|---------------------------------------------------------------------|



E|---------------------------------------------------------------------|
B|---------------------------------------------------------------------|
G|--2------------------------------------------------------------------|
D|-----4--2----5-------------------------------------------------------|
A|---------------------------------------------------------------------|
E|---------------------------------------------------------------------|



 G D A D A G        G D G A D
E|--------------------------------------------------------|
B|---8-8-8---7--5---7-7-7--5---3---8-8-8-7--3--5-7--------|
G|---7-7-7---7--6---7-7-7--6---4---7-7-7-7--4--6----7--9--|
D|---9-9-9---7--7---7-7-7--7---5---9-9-9-7--5--7----7--9--|
A|--------------------------------------------------5--7--|
E|--------------------------------------------------------|


   LINK DA GUITARRA DA INTRODUÇÃO

E|------------------------|--------------------|
B|-------------5----------|--------------------|
G|------2h4--4b^---4b---2-|--------------------|
D|--2h4-------------------|--4-5-4-2-0---0-----|
A|------------------------|------------2---0---|
E|------------------------|--------------------|


Em                         G
  Foi tudo sempre um tanto combinado    
D
  Você e eu
Em           D/F#   G
  Então fomos enganados
            Bm 
  Pelo destino
     Bm7+
  E nesse tempo aí
            C                D/F#   
  Faltou a cor dos lábios teus
  G
  De novo
                                
Em                    G
  Se tudo isso foi então filmado
D
  Fui sempre teu 
Em           D/F#  G
  Assim como num teatro
            D
  Em que te vi passar por mim

  Sem saber que ali
            C                D/F#   
  Estava a luz dos olhos teus
      G
  Num jogo

   G D A D A G (2 VEZES) 


E|------------------------|--------------------|
B|-------------5----------|--------------------|
G|------2h4--4b---4b ---2-|--------------------|
D|--2h4-------------------|--4-5-4-2-0---0-----|
A|------------------------|------------2---0---|
E|------------------------|--------------------|



E|---------------|----------------------------|
B|---------------|--10--8--7------------------|
G|------2------4-|---9--9--7--9--7------------|
D|--2h4----2h4---|------------9--7--9--7--2---|
A|---------------|------------------9--7--2---|
E|---------------|----------------------------|


Em                             D        A  A4
E agora o que te faz pensar em me deixar?
Em           D/F#  G
  Pra que planos?
Em                               G        D
  E agora o que te faz pensar em me deixar?
Em           D/F#  G
  É engano

A A4    A A4 (2VEZES)


SOLO: BASE (Em G  D)   (Em G  D D4)
E|--15b-15v-----------------------------------------------------------10|
B|----------------------------------11----10p-10h12---12-12---10-10-12--|
G|----------11h12--12-12---11-11-12----12p------------------------------|
D|----------------------------------------------------------------------|
A|----------------------------------------------------------------------|
E|----------------------------------------------------------------------|



E|-----10---10/14--------9----------------------------------------------|
B|--12------------------------------------------------------------------|
G|----------------------------------------------------------------------|
D|----------------------------------------------------------------------|
A|----------------------------------------------------------------------|
E|----------------------------------------------------------------------|



E|--------------------------------------------------------------------10|
B|----------------------------------11----10p-10h12---12-12---10-10-12--|
G|----------11h12--12-12---11-11-12----12p------------------------------|
D|----------------------------------------------------------------------|
A|----------------------------------------------------------------------|
E|----------------------------------------------------------------------|



E|-----10---10/14---15--15-15-15-15-14-12-------------------------------|
B|--12-------------------------------------15v--------------------------|
G|----------------------------------------------------------------------|
D|----------------------------------------------------------------------|
A|----------------------------------------------------------------------|
E|----------------------------------------------------------------------|


Em                               G         D  D4
  E agora o que te faz pensar em me deixar?
Em          D/F#  G
  Pra que planos?
Em                               G         D  D4
  E agora o que te faz pensar em me deixar?
Em     D/F#  G      Bm D 
  É engano


G D A D A G    /    G D A D A G   Em   
E|------------------------|--------------------|
B|-------------5----------|--------------------|
G|------2h4--4b---4b ---2-|--------------------|
D|--2h4-------------------|--4-5-4-2-0---0-----|
A|------------------------|------------2---0---|
E|------------------------|--------------------|  

  

E|---------------|-----------------------------|
B|---------------|--10--8--7-------------------|
G|------2------4-|---9--9--7--9--7-------------|
D|--2h4----2h4---|------------9--7--9--7--2----|
A|---------------|------------------9--7--2----|
E|---------------|------------------------0----|
2.086 exibições

Comentários 0

Composição: Junior Hoc
Esse não é o compositor? Avise-nos.
Contribuição: Cartahoc
Consegui tocarAinda não conseguiram tocar essa música. Seja o primeiro!
    Não consegui tocar
    Exibir acordes »
    publicidade
    fechar