Super Castlevania IV : Stage 3-1

Castlevania

 Castlevania
Tom: B
		
(rhythm - play this bar 14 times (lead comes in on 5th time)

|-------------|
|-------6-----|
|----8--------|
|-8--------8--|
|-------------|
|-------------|


(then)

|----------------------------------------------------------------6--8-|
|-----------9-----------7-----------6----------6--------------6-------|
|--------8-----------6-----------5----------5-----------5--6----------|
|-----9-----------6-----------6----------6-----------6----------------|
|-11-----------9-----------8----------8-----------8-------------------|
|---------------------------------------------------------------------|


(lead)

|-------11--13------------13--------|
|-11------------14----14------11----|
|-----------------------------------|
|-----------------------------------|
|-----------------------------------|
|-----------------------------------|



|-------11--13-14----13--11-----------------11-13----|
|-11-------------------------14---13-----14----------|
|----------------------------------------------------|
|----------------------------------------------------|
|----------------------------------------------------|
|----------------------------------------------------|


(Next section)

|-------------------------------------16----|
|----------------9----------------18--------|
|------------10-------15--17--18------------|
|-8--10--11---------------------------------|
|-------------------------------------------|
|-------------------------------------------|



|--------------------------------------------------------------------|
|-9--8---------------------------------------------------------------|
|-------11--10--8--8---------------9--10--11--12--13--------8----10--|
|---------------------10----8--11-----------------11--10-------------|
|--------------------------------------------------------------------|
|--------------------------------------------------------------------|



|-----------------------------------------------------------------|
|-----------------------------------------------------------------|
|-8--10--11-10---------------8----------------------------8-------|
|---------------8----10--11----------------------11---10-----8----|
|---------------------------------11----9-------------------------|
|-----------------------------------------------------------------|



|-------------------------------------------------------------|
|-------------------------------------------------------------|
|-10------------8--------8----------------------------8--6----|
|-11----11--11-------11-----10----8----10----11---10-----8----|
|-------------------------------------------------------------|
|-------------------------------------------------------------|


(outro)

|----------------------------------------------------|
|----------------------------------------------11----|
|---------------------------------10--10h12h13-------|
|---------8-----------11--8h10h11--------------------|
|-8h10h11----10h11h13--------------------------------|
|----------------------------------------------------|
251 exibições

Comentários 0

Consegui tocarAinda não conseguiram tocar essa música. Seja o primeiro!
    Não consegui tocar
    Exibir acordes »
    publicidade
    fechar