Aleluia, Glória Ao Senhor

Católicas

 Católicas
Tom: C
		
    C               F             G         C
Aleluia,Aleluia,Aleluia,Aleluia,Glória ao Senhor! 2x

  C          F             G          C
Glória ao Espírito Santo,Glória ao Espírito Santo,
  C          F             G          C
Glória ao Espírito Santo,Glória ao Senhor!

( C F G C )


E|---------------------------------|
B|---------------------------------|
G|-----------1-1-------2-2---------|
D|-----2-2-2-----4-4-4-----6-4-4-2-|
A|-2-2-----------------------------|
E|---------------------------------|



E|-----------------|-----------------|-----------------|---------|
B|-----------------|-----------------|-----------------|---------|
G|---1-------------|-----------------|---1-------------|---------|
D|-2---2-4-4-6-7-7-|-1-4-1-2-2-4-6-6-|-2---2-4-4-6-7-7-|-6-4-4-2-|
A|-----------------|-----------------|-----------------|---------|
E|-----------------|-----------------|-----------------|---------|
10.632 exibições

Comentários 0

Consegui tocarAinda não conseguiram tocar essa música. Seja o primeiro!
    Não consegui tocar
    Exibir acordes »
    publicidade
    fechar