O mundo é um moinho

Cazuza

 Cazuza
Tom: D
		
[ Cartola ]

INTRODUÇÃO

E|--------------------------------------------------
B|9-10-12-12-10-13-10-------------------------------
G|--------------------10-9-8------------------------
D|--------------------------------------------------
A|--------------------------------------------------
E|--------------------------------------------------



E|--------------------------------------------------
B|7-8-10-10-8-11-8----------------------------------
G|-----------------8-7-6---7-9-9b10-7---------------
D|--------------------------------------------------
A|--------------------------------------------------
E|--------------------------------------------------


A        Bm                  E7                  C#m
Ainda é cedo amor,  mal começas-te a conhecer a vida
      A7                 D
Já anuncias a  hora da partida
          Bm                 E7      Em/C#  F#
Sem saber mesmo o rumo que irás tomar
            Bm                     E7 
Preste atenção querida,  embora eu saiba que estás 

      C#m
resolvida
           A7                      D
Em cada esquina cai um pouco a tua vida 
           Bm                        E7  Em/C# F#
 Em pouco tempo  não serás mas o que és
        F#m/D#                E/D          
Ouça-me bem amor, preste atenção o mundo é um 
 C#m
moinho 
                             Bm
Vai triturar teus sonhos tão mesquinhos
         E7                  Em/C#  F#             
Vai  reduzir as ilusões a pó,                    
          F#/D#                E/D
Preste atenção querida  em cada amor
                  C#m                 
Tu herdarás só o cinismo,   quando notares estás a 
           Bm
beira do abismo 

  E7                           F  Dm A13/E  
Abismo que cavaste com teus   pés.

REPETE
176.385 exibições

Comentários 2

  • dinascmento dinascmento: Postado em 14/09/2011 14:24

    kd o dedilhado dela?? so mostra os acordes falta a tab :S

    mas essa musica é mt massa

    • aliennacao aliennacao: Postado em 20/10/2012 14:59

      é só tocar as cordas em sequência da mais baixa pra mais alta

Composição: Mike Donehey / Ryon Lovette
Esse não é o compositor? Avise-nos.
Contribuição: bflopess Correções: VLADI DU KAVAKO ...........® e mais 1 »
Exibir acordes »
publicidade
fechar