Diga que valeu

Chiclete Com Banana

 Chiclete Com Banana
Tom: D
		

 Intro: D A Bm A A5+
E|----------7-5~~-10-9-7-5--7-5---7-5~~----|
B|-7-8-10~~---------------------7----------|
G|-----------------------------------------|
D|-----------------------------------------|
A|-----------------------------------------|
E|-----------------------------------------|


    D
Um beijo em você eu quero dá
		         A
Saudade presa no meu coração
         G
Eu ando louco alucinado
        Bm                  Em   A
Muito doido apaixonado por você
G
É pena que esse amor
Bm
Não possa mais ficar
Em                    G
É pena que esse amor
                      A
Não vá poder se eternizar
       D
Então, diga que valeu
              A
O nosso amor valeu demais
     G                 A
Foi lindo, ficou pra trás
      D
Então, diga que valeu
              A
O nosso amor valeu demais
    G                 A
Que pena, ficou pra trás
       D
Então, diga que valeu
              A
O nosso amor valeu demais
     G                 A
Foi lindo, ficou pra trás

D                            A
Faz tanto tempo que eu te conheço
                      D
Mas você mudou comigo
                             A
Faz tanto tempo que eu te conheço
                      D
Mas você mudou comigo
                 A               G    A
Minha flor bonita, minha linda flor
D                 A               G    A   D
Minha flor bonita, minha linda flor


E|----------7-5~~-10-9-7-5-7-----7--5~~------|
B|-7-8-10~~-------------------7--------------|
G|-------------------------------------------|
D|-------------------------------------------|
A|-------------------------------------------|
E|-------------------------------------------|


202.331 exibições

Comentários 2

  • jafer jafer: Postado em 17/08/2014 15:47

    qual a batida

  • bunynho bunynho: Postado em 03/08/2012 09:56

    musica legalzinha viu....

Composição: A música Diga Que Valeu é de autoria do compositor chamado: Fredson. Favor retirar o nome do Bell Marques. Obrigado.
Esse não é o compositor? Avise-nos.
Contribuição: Marceelo Santiago Correções: jefferson.raylan , jacob e mais 5 »
Exibir acordes »
publicidade
fechar