Tom: C
		
Agradecimentos, dúvidas, correções, dinheiro (???) e-mail para:
*

Thanks, qustions, corrections, money(???) e-mail to:
*

BRAZIL MUSIC ROCK TOO!

Essa é minha primeira tab aqui,então peque leve comigo (This is my frist tab, so go easy 
me)

BANDA: CHICO SCIENCE & NAÇÃO ZUMBI
MÚSICA: "RISOFLORA"
ALBUM: DA LAMA AO CAOS
AUTOR: CHICO SCIENCE

AFINAÇÃO PADRÃO:
STANDART TUNNING:
(E, B, G, D, A, E)

NOTAS:
É RECOMENDÁVEL UTILIZAR UMA PALHETA, DE PREFERENCIA BEM MOLE, DESSAS QUE VÊM COM
ENCORDAMENTOS DE QUALIDADE INFERIOR,PARA TOCAR ESSA MUSICA E CHEGAR BEM PROXIMO DA
SONORIDADE ORIGINAL.

Riff 1:

E||-5-5-5--5-5-5--5-5--5-5--7-7--5-5-5--5-5-5--5-5--5-5-5--5-5-5||
B||-5-5-5--5-5-5--5-5--5-5--7-7--5-5-5--5-5-5--5-5--5-5-5--5-5-5||
G||-5-5-5--5-5-5--5-5--5-5--7-7--5-5-5--5-5-5--5-5--5-5-5--5-5-5||
D||-------------------------------------------------------------||
A||-------------------------------------------------------------||
E||-------------------------------------------------------------||


FINAL DO RIFF:
    Em      G7

E||-0-------3--||
B||-0-------3--||
G||-0-------4--||
D||-2-------3--||
A||-2-------5--||
E||-0-------3--||


Riff 2:

E||-7-7-7-7-7-7--7-7--7-7-7--7-7-7--8-8--7-7-7-7-7-7--7-7--7-7-7--7-7-7-5-5||
B||-7-7-7-7-7-7--7-7--7-7-7--7-7-7--8-8--7-7-7-7-7-7--7-7--7-7-7--7-7-7-5-5||
G||-7-7-7-7-7-7--7-7--7-7-7--7-7-7--8-8--7-7-7-7-7-7--7-7--7-7-7--7-7-7-5-5||
D||------------------------------------------------------------------------||
A||------------------------------------------------------------------------||
E||------------------------------------------------------------------------||



sOLO:

E|-5-3--5--3--8--5--3--5--5--3--5--3--8--5--3--5----------------------------|
B|-----------------------------------------------3-5--3--5--3--8--5--3--5---|
G|--------------------------------------------------------------------------|
D|--------------------------------------------------------------------------|
A|--------------------------------------------------------------------------|
E|--------------------------------------------------------------------------|



E|-5-3--5--3--8--5--3--5--5--3--5--3--8--5--3--5----------------------------|
B|-----------------------------------------------3-5--3--5--3----10----8----|
G|--------------------------------------------------------------------------|
D|--------------------------------------------------------------------------|
A|--------------------------------------------------------------------------|
E|--------------------------------------------------------------------------|
12.007 exibições

Comentários 0

Composição: Chico Science e Nação Zumbi
Esse não é o compositor? Avise-nos.
Consegui tocarAinda não conseguiram tocar essa música. Seja o primeiro!
    Não consegui tocar
    Exibir acordes »
    publicidade
    fechar