Meu Erro

Chimarrut's

 Chimarrut's
Tom: A
		
Intro: A  E  D (3x)
       A  E  D  Dm


E|---------------------------------------|
B|---------------------------------------|
G|---------------------------------------|
D|-------2--2/9--7--0-0-0-0-0-0--2-3-2-0-|
A|-0-2-4---------------------------------|
E|---------------------------------------|


(ou)


E|---9--9--9--7--12---5-5-5--------------|
B|--10-10-10--9--12---7-7-7--------------|
G|---------------------------------------|
E|---9------9-7--12---5-5-5---5----------|
B|--10-----10-9--12---7-7-7---6----------|
G|---------------------------------------|


A
Eu quis dizer
         C#m
Você não quis escutar
D
Agora não peça
       Dm
Não me faça promessas
A
Eu não quero te ver
    C#m
Nem quero acreditar
       D
Que vai ser diferente
    Dm
Que tudo mudou

C#m
Você diz não saber
      F#m
O que houve de errado
        D
E o meu erro foi crer
      Dm
Que estar ao seu lado
A       F#m
bastaria
        D                     A     F#m
Ah Meu Deus , era tudo que eu queria
     D                  Dm
Eu dizia o seu nome, não  me abandone jamais

Parte 2:

A
Mesmo querendo eu
    C#m
não vou me enganar
           D
Eu conheço os seus passos
   Dm
Eu vejo os seus erros
A
Não há nada de novo
C#m
Ainda somos iguais
D
Então não me chame
Dm
Não olhe pra trás

     C#m
Você diz não saber
     F#m
O que houve de errado
      D
E o meu erro foi crer
      Dm
que estar ao seu lado
A       E
bastaria
        D                   A     E
Ah!meu Deus era tudo que eu queria
     D
Eu dizia o seu nome,
   Dm               A     E
Não  me abandone Jamais
D                  A     E
Não me abandone jamais

Parte 2:


E|------------------------------------|
B|------------------------------------|
G|---2---2-2-----2---2----------------|
D|-----2-----2-----2--2-2----4---0----|
A|------------------------------------|
E|------------------------------------|

Comentários 1

  • araripina araripina: Postado em 02/10/2011 17:52

    Essa música é muita boa para tocar com dois violões

Composição: Herbert Vianna
Esse não é o compositor? Avise-nos.
Contribuição: bernardomoro Correções: Gustavo , Niko e mais 3 »
Exibir acordes »
publicidade
fechar