Cifra Club

Meu Erro

Chimarruts

Cifra: Principal (violão e guitarra)
Tom: F#m
[Intro]  A9  C#m  Bm
         A9  C#m  Bm
         A9  C#m  Bm
         A9  C#m  Bm

E|---------------------------------------|
B|---------------------------------------|
G|---------------------------------------|
D|--9/11--9---7--------------------------|
A|---------------------------------------|
E|---------------------------------------|


E|---------------------------------------|
B|---------------------------------------|
G|-----------7/9-------------------------|
D|--9/11--9-------7----------------------|
A|---------------------------------------|
E|---------------------------------------|


E|---------------------------------------|
B|---------------------------------------|
G|---------------------------------------|
D|--9/11--9---7--------------------------|
A|---------------------------------------|
E|---------------------------------------|


E|---------------------------------------|
B|---------------------------------------|
G|-----------7/9-------------------------|
D|--9/11--9-------7----------------------|
A|---------------------------------------|
E|---------------------------------------|


A9
Eu quis dizer
         C#m
Você não quis escutar
Bm
Agora não peça
       Dm
Não me faça promessas
A9
Eu não quero te ver
    C#m
Nem quero acreditar
       Bm
Que vai ser diferente
    Dm
Que tudo mudou

C#m
Você diz não saber
      F#m
O que houve de errado
        D
E o meu erro foi crer
      Dm
Que estar ao seu lado
A9       C#m
Bastaria
        Bm                     A9     C#m
Ah Meu Deus , era tudo que eu queria
     Bm                  Dm
Eu dizia o seu nome, não  me abandone jamais

A9
Mesmo querendo eu
    C#m
Não vou me enganar
           Bm
Eu conheço os seus passos
   Dm
Eu vejo os seus erros
A9
Não há nada de novo
C#m
Ainda somos iguais
Bm
Então não me chame
Dm
Não olhe pra trás

     C#m
Você diz não saber
     F#m
O que houve de errado
      D
E o meu erro foi crer
      Dm
Que estar ao seu lado
A9       C#m
Bastaria
        Bm                   A9     C#m
Ah!meu Deus era tudo que eu queria
     Bm
Eu dizia o seu nome
   Dm               A9     C#m
Não  me abandone Jamais
Bm                  A9     C#m
Não me abandone jamais

Bm
Não me abandone
exibições 116.641
Acordes para:

    0 comentários

    mostrar mais comentários

    Conseguiu tocar?

    23 tocaram 1 ainda não

    Grave um vídeo tocando Meu Erro e mande pra gente!

    00:00 / 00:00
    outros vídeos desta música
    repetir qualidade Automático
    Outros vídeos desta música
    00:00 / 00:00
    Automático
    OK